  0
SECTION
  2
HEADER
  9
$ACADVER
  1
AC1024
  9
$ACADMAINTVER
 70
   225
  9
$DWGCODEPAGE
  3
ANSI_949
  9
$LASTSAVEDBY
  1
YJJ
  9
$INSBASE
 10
0.0
 20
0.0
 30
0.0
  9
$EXTMIN
 10
-7.380320000000015
 20
30.72299999999995
 30
0.0
  9
$EXTMAX
 10
364.7559999999998
 20
159.9750000000001
 30
0.0
  9
$LIMMIN
 10
0.0
 20
0.0
  9
$LIMMAX
 10
12.0
 20
9.0
  9
$ORTHOMODE
 70
     0
  9
$REGENMODE
 70
     1
  9
$FILLMODE
 70
     0
  9
$QTEXTMODE
 70
     0
  9
$MIRRTEXT
 70
     0
  9
$LTSCALE
 40
1.0
  9
$ATTMODE
 70
     1
  9
$TEXTSIZE
 40
0.2
  9
$TRACEWID
 40
0.05
  9
$TEXTSTYLE
  7
Standard
  9
$CLAYER
  8
0
  9
$CELTYPE
  6
Continuous
  9
$CECOLOR
 62
   256
  9
$CELTSCALE
 40
1.0
  9
$DISPSILH
 70
     0
  9
$DIMSCALE
 40
1.0
  9
$DIMASZ
 40
0.18
  9
$DIMEXO
 40
0.0625
  9
$DIMDLI
 40
0.38
  9
$DIMRND
 40
0.0
  9
$DIMDLE
 40
0.0
  9
$DIMEXE
 40
0.18
  9
$DIMTP
 40
0.0
  9
$DIMTM
 40
0.0
  9
$DIMTXT
 40
0.18
  9
$DIMCEN
 40
0.09
  9
$DIMTSZ
 40
0.0
  9
$DIMTOL
 70
     0
  9
$DIMLIM
 70
     0
  9
$DIMTIH
 70
     1
  9
$DIMTOH
 70
     1
  9
$DIMSE1
 70
     0
  9
$DIMSE2
 70
     0
  9
$DIMTAD
 70
     0
  9
$DIMZIN
 70
     0
  9
$DIMBLK
  1

  9
$DIMASO
 70
     1
  9
$DIMSHO
 70
     1
  9
$DIMPOST
  1

  9
$DIMAPOST
  1

  9
$DIMALT
 70
     0
  9
$DIMALTD
 70
     2
  9
$DIMALTF
 40
25.4
  9
$DIMLFAC
 40
1.0
  9
$DIMTOFL
 70
     0
  9
$DIMTVP
 40
0.0
  9
$DIMTIX
 70
     0
  9
$DIMSOXD
 70
     0
  9
$DIMSAH
 70
     0
  9
$DIMBLK1
  1

  9
$DIMBLK2
  1

  9
$DIMSTYLE
  2
Standard
  9
$DIMCLRD
 70
     0
  9
$DIMCLRE
 70
     0
  9
$DIMCLRT
 70
     0
  9
$DIMTFAC
 40
1.0
  9
$DIMGAP
 40
0.09
  9
$DIMJUST
 70
     0
  9
$DIMSD1
 70
     0
  9
$DIMSD2
 70
     0
  9
$DIMTOLJ
 70
     1
  9
$DIMTZIN
 70
     0
  9
$DIMALTZ
 70
     0
  9
$DIMALTTZ
 70
     0
  9
$DIMUPT
 70
     0
  9
$DIMDEC
 70
     4
  9
$DIMTDEC
 70
     4
  9
$DIMALTU
 70
     2
  9
$DIMALTTD
 70
     2
  9
$DIMTXSTY
  7
Standard
  9
$DIMAUNIT
 70
     0
  9
$DIMADEC
 70
     0
  9
$DIMALTRND
 40
0.0
  9
$DIMAZIN
 70
     0
  9
$DIMDSEP
 70
    46
  9
$DIMATFIT
 70
     3
  9
$DIMFRAC
 70
     0
  9
$DIMLDRBLK
  1

  9
$DIMLUNIT
 70
     2
  9
$DIMLWD
 70
    -2
  9
$DIMLWE
 70
    -2
  9
$DIMTMOVE
 70
     0
  9
$DIMFXL
 40
1.0
  9
$DIMFXLON
 70
     0
  9
$DIMJOGANG
 40
0.7853981633974483
  9
$DIMTFILL
 70
     0
  9
$DIMTFILLCLR
 70
     0
  9
$DIMARCSYM
 70
     0
  9
$DIMLTYPE
  6

  9
$DIMLTEX1
  6

  9
$DIMLTEX2
  6

  9
$DIMTXTDIRECTION
 70
     0
  9
$LUNITS
 70
     2
  9
$LUPREC
 70
     4
  9
$SKETCHINC
 40
0.1
  9
$FILLETRAD
 40
0.0
  9
$AUNITS
 70
     0
  9
$AUPREC
 70
     0
  9
$MENU
  1
.
  9
$ELEVATION
 40
0.0
  9
$PELEVATION
 40
0.0
  9
$THICKNESS
 40
0.0
  9
$LIMCHECK
 70
     0
  9
$CHAMFERA
 40
0.0
  9
$CHAMFERB
 40
0.0
  9
$CHAMFERC
 40
0.0
  9
$CHAMFERD
 40
0.0
  9
$SKPOLY
 70
     0
  9
$TDCREATE
 40
2457908.463530093
  9
$TDUCREATE
 40
2457908.130196760
  9
$TDUPDATE
 40
2457908.626828704
  9
$TDUUPDATE
 40
2457908.293495371
  9
$TDINDWG
 40
0.0892476852
  9
$TDUSRTIMER
 40
0.0892476852
  9
$USRTIMER
 70
     1
  9
$ANGBASE
 50
0.0
  9
$ANGDIR
 70
     0
  9
$PDMODE
 70
     0
  9
$PDSIZE
 40
0.0
  9
$PLINEWID
 40
0.0
  9
$SPLFRAME
 70
     1
  9
$SPLINETYPE
 70
     6
  9
$SPLINESEGS
 70
     8
  9
$HANDSEED
  5
1B92
  9
$SURFTAB1
 70
     6
  9
$SURFTAB2
 70
     6
  9
$SURFTYPE
 70
     6
  9
$SURFU
 70
     6
  9
$SURFV
 70
     6
  9
$UCSBASE
  2

  9
$UCSNAME
  2

  9
$UCSORG
 10
0.0
 20
0.0
 30
0.0
  9
$UCSXDIR
 10
1.0
 20
0.0
 30
0.0
  9
$UCSYDIR
 10
0.0
 20
1.0
 30
0.0
  9
$UCSORTHOREF
  2

  9
$UCSORTHOVIEW
 70
     0
  9
$UCSORGTOP
 10
0.0
 20
0.0
 30
0.0
  9
$UCSORGBOTTOM
 10
0.0
 20
0.0
 30
0.0
  9
$UCSORGLEFT
 10
0.0
 20
0.0
 30
0.0
  9
$UCSORGRIGHT
 10
0.0
 20
0.0
 30
0.0
  9
$UCSORGFRONT
 10
0.0
 20
0.0
 30
0.0
  9
$UCSORGBACK
 10
0.0
 20
0.0
 30
0.0
  9
$PUCSBASE
  2

  9
$PUCSNAME
  2

  9
$PUCSORG
 10
0.0
 20
0.0
 30
0.0
  9
$PUCSXDIR
 10
1.0
 20
0.0
 30
0.0
  9
$PUCSYDIR
 10
0.0
 20
1.0
 30
0.0
  9
$PUCSORTHOREF
  2

  9
$PUCSORTHOVIEW
 70
     0
  9
$PUCSORGTOP
 10
0.0
 20
0.0
 30
0.0
  9
$PUCSORGBOTTOM
 10
0.0
 20
0.0
 30
0.0
  9
$PUCSORGLEFT
 10
0.0
 20
0.0
 30
0.0
  9
$PUCSORGRIGHT
 10
0.0
 20
0.0
 30
0.0
  9
$PUCSORGFRONT
 10
0.0
 20
0.0
 30
0.0
  9
$PUCSORGBACK
 10
0.0
 20
0.0
 30
0.0
  9
$USERI1
 70
     0
  9
$USERI2
 70
     0
  9
$USERI3
 70
     0
  9
$USERI4
 70
     0
  9
$USERI5
 70
     0
  9
$USERR1
 40
0.0
  9
$USERR2
 40
0.0
  9
$USERR3
 40
0.0
  9
$USERR4
 40
0.0
  9
$USERR5
 40
0.0
  9
$WORLDVIEW
 70
     1
  9
$SHADEDGE
 70
     3
  9
$SHADEDIF
 70
    70
  9
$TILEMODE
 70
     1
  9
$MAXACTVP
 70
    64
  9
$PINSBASE
 10
0.0
 20
0.0
 30
0.0
  9
$PLIMCHECK
 70
     0
  9
$PEXTMIN
 10
1.000000000000000E+20
 20
1.000000000000000E+20
 30
1.000000000000000E+20
  9
$PEXTMAX
 10
-1.000000000000000E+20
 20
-1.000000000000000E+20
 30
-1.000000000000000E+20
  9
$PLIMMIN
 10
0.0
 20
0.0
  9
$PLIMMAX
 10
12.0
 20
9.0
  9
$UNITMODE
 70
     0
  9
$VISRETAIN
 70
     1
  9
$PLINEGEN
 70
     0
  9
$PSLTSCALE
 70
     1
  9
$TREEDEPTH
 70
  3020
  9
$CMLSTYLE
  2
Standard
  9
$CMLJUST
 70
     0
  9
$CMLSCALE
 40
1.0
  9
$PROXYGRAPHICS
 70
     1
  9
$MEASUREMENT
 70
     0
  9
$CELWEIGHT
370
    -1
  9
$ENDCAPS
280
     0
  9
$JOINSTYLE
280
     0
  9
$LWDISPLAY
290
     0
  9
$INSUNITS
 70
     0
  9
$HYPERLINKBASE
  1

  9
$STYLESHEET
  1

  9
$XEDIT
290
     1
  9
$CEPSNTYPE
380
     0
  9
$PSTYLEMODE
290
     1
  9
$FINGERPRINTGUID
  2
{AF229DB3-6014-BB42-9A36-6B422DB9726F}
  9
$VERSIONGUID
  2
{A6C32102-42DE-964A-BF76-A76D18A8A48F}
  9
$EXTNAMES
290
     1
  9
$PSVPSCALE
 40
0.0
  9
$OLESTARTUP
290
     0
  9
$SORTENTS
280
   127
  9
$INDEXCTL
280
     0
  9
$HIDETEXT
280
     0
  9
$XCLIPFRAME
280
     2
  9
$HALOGAP
280
     0
  9
$OBSCOLOR
 70
   257
  9
$OBSLTYPE
280
     0
  9
$INTERSECTIONDISPLAY
280
     0
  9
$INTERSECTIONCOLOR
 70
   257
  9
$DIMASSOC
280
     1
  9
$PROJECTNAME
  1

  9
$CAMERADISPLAY
290
     0
  9
$LENSLENGTH
 40
50.0
  9
$CAMERAHEIGHT
 40
0.0
  9
$STEPSPERSEC
 40
2.0
  9
$STEPSIZE
 40
6.0
  9
$3DDWFPREC
 40
2.0
  9
$PSOLWIDTH
 40
0.25
  9
$PSOLHEIGHT
 40
4.0
  9
$LOFTANG1
 40
1.570796326794896
  9
$LOFTANG2
 40
1.570796326794896
  9
$LOFTMAG1
 40
0.0
  9
$LOFTMAG2
 40
0.0
  9
$LOFTPARAM
 70
     7
  9
$LOFTNORMALS
280
     1
  9
$LATITUDE
 40
37.795
  9
$LONGITUDE
 40
-122.394
  9
$NORTHDIRECTION
 40
0.0
  9
$TIMEZONE
 70
 -8000
  9
$LIGHTGLYPHDISPLAY
280
     1
  9
$TILEMODELIGHTSYNCH
280
     1
  9
$CMATERIAL
347
11
  9
$SOLIDHIST
280
     0
  9
$SHOWHIST
280
     1
  9
$DWFFRAME
280
     2
  9
$DGNFRAME
280
     0
  9
$REALWORLDSCALE
290
     1
  9
$INTERFERECOLOR
 62
     1
  9
$INTERFEREOBJVS
345
33
  9
$INTERFEREVPVS
346
30
  9
$CSHADOW
280
     0
  9
$SHADOWPLANELOCATION
 40
0.0
  0
ENDSEC
  0
SECTION
  2
CLASSES
  0
CLASS
  1
ACDBDICTIONARYWDFLT
  2
AcDbDictionaryWithDefault
  3
ObjectDBX Classes
 90
        0
 91
        1
280
     0
281
     0
  0
CLASS
  1
MATERIAL
  2
AcDbMaterial
  3
ObjectDBX Classes
 90
     1153
 91
        3
280
     0
281
     0
  0
CLASS
  1
VISUALSTYLE
  2
AcDbVisualStyle
  3
ObjectDBX Classes
 90
     4095
 91
       24
280
     0
281
     0
  0
CLASS
  1
SCALE
  2
AcDbScale
  3
ObjectDBX Classes
 90
     1153
 91
       17
280
     0
281
     0
  0
CLASS
  1
TABLESTYLE
  2
AcDbTableStyle
  3
ObjectDBX Classes
 90
     4095
 91
        1
280
     0
281
     0
  0
CLASS
  1
MLEADERSTYLE
  2
AcDbMLeaderStyle
  3
ACDB_MLEADERSTYLE_CLASS
 90
     4095
 91
        1
280
     0
281
     0
  0
CLASS
  1
ACDBSECTIONVIEWSTYLE
  2
AcDbSectionViewStyle
  3
ObjectDBX Classes
 90
     1025
 91
        1
280
     0
281
     0
  0
CLASS
  1
ACDBDETAILVIEWSTYLE
  2
AcDbDetailViewStyle
  3
ObjectDBX Classes
 90
     1025
 91
        1
280
     0
281
     0
  0
CLASS
  1
SORTENTSTABLE
  2
AcDbSortentsTable
  3
ObjectDBX Classes
 90
        0
 91
        3
280
     0
281
     0
  0
CLASS
  1
DICTIONARYVAR
  2
AcDbDictionaryVar
  3
ObjectDBX Classes
 90
        0
 91
       63
280
     0
281
     0
  0
CLASS
  1
CELLSTYLEMAP
  2
AcDbCellStyleMap
  3
ObjectDBX Classes
 90
     1152
 91
        1
280
     0
281
     0
  0
ENDSEC
  0
SECTION
  2
TABLES
  0
TABLE
  2
VPORT
  5
8
330
0
100
AcDbSymbolTable
 70
     1
  0
VPORT
  5
74
330
8
100
AcDbSymbolTableRecord
100
AcDbViewportTableRecord
  2
*Active
 70
     0
 10
0.0
 20
0.0
 11
1.0
 21
1.0
 12
198.0784688884234
 22
88.19369118110598
 13
0.0
 23
0.0
 14
1.0
 24
1.0
 15
0.0
 25
0.0
 16
0.0
 26
0.0
 36
1.0
 17
0.0
 27
0.0
 37
0.0
 40
235.5174214816849
 41
2.318681318681318
 42
50.0
 43
0.0
 44
0.0
 50
0.0
 51
0.0
 71
     0
 72
   100
 73
     1
 74
     1
 75
     0
 76
     0
 77
     0
 78
     0
281
     0
 65
     1
110
0.0
120
0.0
130
0.0
111
1.0
121
0.0
131
0.0
112
0.0
122
1.0
132
0.0
 79
     0
146
0.0
348
2F
 60
     3
 61
     5
292
     1
282
     1
141
0.0
142
0.0
 63
   250
421
  3355443
1001
ACAD_NAV_VCDISPLAY
1070
     3
  0
ENDTAB
  0
TABLE
  2
LTYPE
  5
5
330
0
100
AcDbSymbolTable
 70
     1
  0
LTYPE
  5
5A
330
5
100
AcDbSymbolTableRecord
100
AcDbLinetypeTableRecord
  2
ByBlock
 70
     0
  3

 72
    65
 73
     0
 40
0.0
  0
LTYPE
  5
5B
330
5
100
AcDbSymbolTableRecord
100
AcDbLinetypeTableRecord
  2
ByLayer
 70
     0
  3

 72
    65
 73
     0
 40
0.0
  0
LTYPE
  5
5C
330
5
100
AcDbSymbolTableRecord
100
AcDbLinetypeTableRecord
  2
Continuous
 70
     0
  3
Solid line
 72
    65
 73
     0
 40
0.0
  0
ENDTAB
  0
TABLE
  2
LAYER
  5
2
102
{ACAD_XDICTIONARY
360
284
102
}
330
0
100
AcDbSymbolTable
 70
     1
  0
LAYER
  5
54
102
{ACAD_XDICTIONARY
360
1759
102
}
330
2
100
AcDbSymbolTableRecord
100
AcDbLayerTableRecord
  2
0
 70
     0
 62
     7
  6
Continuous
370
    -3
390
F
347
21
  0
ENDTAB
  0
TABLE
  2
STYLE
  5
3
330
0
100
AcDbSymbolTable
 70
     2
  0
STYLE
  5
55
330
3
100
AcDbSymbolTableRecord
100
AcDbTextStyleTableRecord
  2
Standard
 70
     0
 40
0.0
 41
1.0
 50
0.0
 71
     0
 42
0.2
  3
txt
  4

  0
STYLE
  5
59
330
3
100
AcDbSymbolTableRecord
100
AcDbTextStyleTableRecord
  2
Annotative
 70
     0
 40
0.0
 41
1.0
 50
0.0
 71
     0
 42
0.2
  3
txt
  4

1001
AcadAnnotative
1000
AnnotativeData
1002
{
1070
     1
1070
     1
1002
}
  0
ENDTAB
  0
TABLE
  2
VIEW
  5
6
330
0
100
AcDbSymbolTable
 70
     0
  0
ENDTAB
  0
TABLE
  2
UCS
  5
7
330
0
100
AcDbSymbolTable
 70
     0
  0
ENDTAB
  0
TABLE
  2
APPID
  5
9
330
0
100
AcDbSymbolTable
 70
     3
  0
APPID
  5
56
330
9
100
AcDbSymbolTableRecord
100
AcDbRegAppTableRecord
  2
ACAD
 70
     0
  0
APPID
  5
5D
330
9
100
AcDbSymbolTableRecord
100
AcDbRegAppTableRecord
  2
AcadAnnotative
 70
     0
  0
APPID
  5
283
330
9
100
AcDbSymbolTableRecord
100
AcDbRegAppTableRecord
  2
ACAD_NAV_VCDISPLAY
 70
     0
  0
ENDTAB
  0
TABLE
  2
DIMSTYLE
  5
A
330
0
100
AcDbSymbolTable
 70
     2
100
AcDbDimStyleTable
 71
     1
340
57
  0
DIMSTYLE
105
57
330
A
100
AcDbSymbolTableRecord
100
AcDbDimStyleTableRecord
  2
Standard
 70
     0
340
55
  0
DIMSTYLE
105
58
330
A
100
AcDbSymbolTableRecord
100
AcDbDimStyleTableRecord
  2
Annotative
 70
     0
340
55
1001
AcadAnnotative
1000
AnnotativeData
1002
{
1070
     1
1070
     1
1002
}
  0
ENDTAB
  0
TABLE
  2
BLOCK_RECORD
  5
1
330
0
100
AcDbSymbolTable
 70
     2
  0
BLOCK_RECORD
  5
6F
330
1
100
AcDbSymbolTableRecord
100
AcDbBlockTableRecord
  2
*Model_Space
340
72
 70
     0
280
     1
281
     0
  0
BLOCK_RECORD
  5
6B
330
1
100
AcDbSymbolTableRecord
100
AcDbBlockTableRecord
  2
*Paper_Space
340
6E
 70
     0
280
     1
281
     0
  0
BLOCK_RECORD
  5
149A
102
{ACAD_XDICTIONARY
360
16A9
102
}
330
1
100
AcDbSymbolTableRecord
100
AcDbBlockTableRecord
  2
A$C6C7A095A
340
0
 70
     0
280
     1
281
     0
  0
BLOCK_RECORD
  5
16FA
102
{ACAD_XDICTIONARY
360
170E
102
}
330
1
100
AcDbSymbolTableRecord
100
AcDbBlockTableRecord
  2
A$C6F671496
340
0
 70
     0
280
     1
281
     0
  0
ENDTAB
  0
ENDSEC
  0
SECTION
  2
BLOCKS
  0
BLOCK
  5
70
330
6F
100
AcDbEntity
  8
0
100
AcDbBlockBegin
  2
*Model_Space
 70
     0
 10
0.0
 20
0.0
 30
0.0
  3
*Model_Space
  1

  0
ENDBLK
  5
71
330
6F
100
AcDbEntity
  8
0
100
AcDbBlockEnd
  0
BLOCK
  5
6C
330
6B
100
AcDbEntity
 67
     1
  8
0
100
AcDbBlockBegin
  2
*Paper_Space
 70
     0
 10
0.0
 20
0.0
 30
0.0
  3
*Paper_Space
  1

  0
ENDBLK
  5
6D
330
6B
100
AcDbEntity
 67
     1
  8
0
100
AcDbBlockEnd
  0
BLOCK
  5
16AB
330
149A
100
AcDbEntity
  8
0
100
AcDbBlockBegin
  2
A$C6C7A095A
 70
     0
 10
0.0
 20
0.0
 30
0.0
  3
A$C6C7A095A
  1

  0
LINE
  5
149B
330
149A
100
AcDbEntity
  8
0
 62
     7
100
AcDbLine
 10
42.45140942984022
 20
120.0509998546259
 30
0.0
 11
29.6514094298405
 21
120.0509998546259
 31
0.0
  0
LINE
  5
149C
330
149A
100
AcDbEntity
  8
0
 62
     7
100
AcDbLine
 10
23.40000942984023
 20
120.051999854626
 30
0.0
 11
10.6000094298405
 21
120.051999854626
 31
0.0
  0
LINE
  5
149D
330
149A
100
AcDbEntity
  8
0
 62
     7
100
AcDbLine
 10
35.90710942984021
 20
43.04999985462592
 30
0.0
 11
21.90760942984019
 21
43.04999985462592
 31
0.0
  0
LINE
  5
149E
330
149A
100
AcDbEntity
  8
0
 62
     7
100
AcDbLine
 10
52.86400942984022
 20
43.04999985462592
 30
0.0
 11
52.86400942984022
 21
42.45199985462597
 31
0.0
  0
LINE
  5
149F
330
149A
100
AcDbEntity
  8
0
 62
     7
100
AcDbLine
 10
52.86400942984022
 20
42.45199985462597
 30
0.0
 11
52.06320942984024
 21
42.45199985462597
 31
0.0
  0
LINE
  5
14A0
330
149A
100
AcDbEntity
  8
0
 62
     7
100
AcDbLine
 10
52.06320942984024
 20
42.45199985462597
 30
0.0
 11
52.06320942984024
 21
29.64999985462595
 31
0.0
  0
LINE
  5
14A1
330
149A
100
AcDbEntity
  8
0
 62
     7
100
AcDbLine
 10
52.06320942984024
 20
29.64999985462595
 30
0.0
 11
52.86400942984022
 21
29.64999985462595
 31
0.0
  0
LINE
  5
14A2
330
149A
100
AcDbEntity
  8
0
 62
     7
100
AcDbLine
 10
52.86400942984022
 20
29.64999985462595
 30
0.0
 11
52.86400942984022
 21
29.0509998546259
 31
0.0
  0
LINE
  5
14A3
330
149A
100
AcDbEntity
  8
0
 62
     7
100
AcDbLine
 10
52.86400942984022
 20
29.0509998546259
 30
0.0
 11
66.86330942984023
 21
29.0509998546259
 31
0.0
  0
LINE
  5
14A4
330
149A
100
AcDbEntity
  8
0
 62
     7
100
AcDbLine
 10
66.86330942984023
 20
29.0509998546259
 30
0.0
 11
66.86330942984023
 21
29.64999985462595
 31
0.0
  0
LINE
  5
14A5
330
149A
100
AcDbEntity
  8
0
 62
     7
100
AcDbLine
 10
66.86330942984023
 20
29.64999985462595
 30
0.0
 11
67.66410942984021
 21
29.64999985462595
 31
0.0
  0
LINE
  5
14A6
330
149A
100
AcDbEntity
  8
0
 62
     7
100
AcDbLine
 10
67.66410942984021
 20
29.64999985462595
 30
0.0
 11
67.66410942984021
 21
42.45199985462597
 31
0.0
  0
LINE
  5
14A7
330
149A
100
AcDbEntity
  8
0
 62
     7
100
AcDbLine
 10
67.66410942984021
 20
42.45199985462597
 30
0.0
 11
66.86330942984023
 21
42.45199985462597
 31
0.0
  0
LINE
  5
14A8
330
149A
100
AcDbEntity
  8
0
 62
     7
100
AcDbLine
 10
66.86330942984023
 20
42.45199985462597
 30
0.0
 11
66.86330942984023
 21
43.04999985462592
 31
0.0
  0
LINE
  5
14A9
330
149A
100
AcDbEntity
  8
0
 62
     7
100
AcDbLine
 10
66.86330942984023
 20
43.04999985462592
 30
0.0
 11
52.86400942984022
 21
43.04999985462592
 31
0.0
  0
LINE
  5
14AA
330
149A
100
AcDbEntity
  8
0
 62
     7
100
AcDbLine
 10
71.91400942984017
 20
43.04999985462592
 30
0.0
 11
71.91400942984017
 21
42.45199985462597
 31
0.0
  0
LINE
  5
14AB
330
149A
100
AcDbEntity
  8
0
 62
     7
100
AcDbLine
 10
71.91400942984017
 20
42.45199985462597
 30
0.0
 11
71.11320942984019
 21
42.45199985462597
 31
0.0
  0
LINE
  5
14AC
330
149A
100
AcDbEntity
  8
0
 62
     7
100
AcDbLine
 10
71.11320942984019
 20
42.45199985462597
 30
0.0
 11
71.11320942984019
 21
29.64999985462595
 31
0.0
  0
LINE
  5
14AD
330
149A
100
AcDbEntity
  8
0
 62
     7
100
AcDbLine
 10
71.11320942984019
 20
29.64999985462595
 30
0.0
 11
71.91400942984017
 21
29.64999985462595
 31
0.0
  0
LINE
  5
14AE
330
149A
100
AcDbEntity
  8
0
 62
     7
100
AcDbLine
 10
71.91400942984017
 20
29.64999985462595
 30
0.0
 11
71.91400942984017
 21
29.0509998546259
 31
0.0
  0
LINE
  5
14AF
330
149A
100
AcDbEntity
  8
0
 62
     7
100
AcDbLine
 10
71.91400942984017
 20
29.0509998546259
 30
0.0
 11
85.91330942984024
 21
29.0509998546259
 31
0.0
  0
LINE
  5
14B0
330
149A
100
AcDbEntity
  8
0
 62
     7
100
AcDbLine
 10
85.91330942984024
 20
29.0509998546259
 30
0.0
 11
85.91330942984024
 21
29.64999985462595
 31
0.0
  0
LINE
  5
14B1
330
149A
100
AcDbEntity
  8
0
 62
     7
100
AcDbLine
 10
85.91330942984024
 20
29.64999985462595
 30
0.0
 11
86.71410942984023
 21
29.64999985462595
 31
0.0
  0
LINE
  5
14B2
330
149A
100
AcDbEntity
  8
0
 62
     7
100
AcDbLine
 10
86.71410942984023
 20
29.64999985462595
 30
0.0
 11
86.71410942984023
 21
42.45199985462597
 31
0.0
  0
LINE
  5
14B3
330
149A
100
AcDbEntity
  8
0
 62
     7
100
AcDbLine
 10
86.71410942984023
 20
42.45199985462597
 30
0.0
 11
85.91330942984024
 21
42.45199985462597
 31
0.0
  0
LINE
  5
14B4
330
149A
100
AcDbEntity
  8
0
 62
     7
100
AcDbLine
 10
85.91330942984024
 20
42.45199985462597
 30
0.0
 11
85.91330942984024
 21
43.04999985462592
 31
0.0
  0
LINE
  5
14B5
330
149A
100
AcDbEntity
  8
0
 62
     7
100
AcDbLine
 10
85.91330942984024
 20
43.04999985462592
 30
0.0
 11
71.91400942984017
 21
43.04999985462592
 31
0.0
  0
LINE
  5
14B6
330
149A
100
AcDbEntity
  8
0
 62
     7
100
AcDbLine
 10
90.96400942984024
 20
43.04999985462592
 30
0.0
 11
90.96400942984024
 21
42.45199985462597
 31
0.0
  0
LINE
  5
14B7
330
149A
100
AcDbEntity
  8
0
 62
     7
100
AcDbLine
 10
90.96400942984024
 20
42.45199985462597
 30
0.0
 11
90.16320942984021
 21
42.45199985462597
 31
0.0
  0
LINE
  5
14B8
330
149A
100
AcDbEntity
  8
0
 62
     7
100
AcDbLine
 10
90.16320942984021
 20
42.45199985462597
 30
0.0
 11
90.16320942984021
 21
29.64999985462595
 31
0.0
  0
LINE
  5
14B9
330
149A
100
AcDbEntity
  8
0
 62
     7
100
AcDbLine
 10
90.16320942984021
 20
29.64999985462595
 30
0.0
 11
90.96400942984024
 21
29.64999985462595
 31
0.0
  0
LINE
  5
14BA
330
149A
100
AcDbEntity
  8
0
 62
     7
100
AcDbLine
 10
90.96400942984024
 20
29.64999985462595
 30
0.0
 11
90.96400942984024
 21
29.0509998546259
 31
0.0
  0
LINE
  5
14BB
330
149A
100
AcDbEntity
  8
0
 62
     7
100
AcDbLine
 10
90.96400942984024
 20
29.0509998546259
 30
0.0
 11
104.9628094298402
 21
29.0509998546259
 31
0.0
  0
LINE
  5
14BC
330
149A
100
AcDbEntity
  8
0
 62
     7
100
AcDbLine
 10
104.9628094298402
 20
29.0509998546259
 30
0.0
 11
104.9628094298402
 21
29.64999985462595
 31
0.0
  0
LINE
  5
14BD
330
149A
100
AcDbEntity
  8
0
 62
     7
100
AcDbLine
 10
104.9628094298402
 20
29.64999985462595
 30
0.0
 11
105.7638094298402
 21
29.64999985462595
 31
0.0
  0
LINE
  5
14BE
330
149A
100
AcDbEntity
  8
0
 62
     7
100
AcDbLine
 10
105.7638094298402
 20
29.64999985462595
 30
0.0
 11
105.7638094298402
 21
42.45199985462597
 31
0.0
  0
LINE
  5
14BF
330
149A
100
AcDbEntity
  8
0
 62
     7
100
AcDbLine
 10
105.7638094298402
 20
42.45199985462597
 30
0.0
 11
104.9628094298402
 21
42.45199985462597
 31
0.0
  0
LINE
  5
14C0
330
149A
100
AcDbEntity
  8
0
 62
     7
100
AcDbLine
 10
104.9628094298402
 20
42.45199985462597
 30
0.0
 11
104.9628094298402
 21
43.04999985462592
 31
0.0
  0
LINE
  5
14C1
330
149A
100
AcDbEntity
  8
0
 62
     7
100
AcDbLine
 10
104.9628094298402
 20
43.04999985462592
 30
0.0
 11
90.96400942984024
 21
43.04999985462592
 31
0.0
  0
LINE
  5
14C2
330
149A
100
AcDbEntity
  8
0
 62
     7
100
AcDbLine
 10
110.0138094298402
 20
43.04999985462592
 30
0.0
 11
110.0138094298402
 21
42.45199985462597
 31
0.0
  0
LINE
  5
14C3
330
149A
100
AcDbEntity
  8
0
 62
     7
100
AcDbLine
 10
110.0138094298402
 20
42.45199985462597
 30
0.0
 11
109.2128094298402
 21
42.45199985462597
 31
0.0
  0
LINE
  5
14C4
330
149A
100
AcDbEntity
  8
0
 62
     7
100
AcDbLine
 10
109.2128094298402
 20
42.45199985462597
 30
0.0
 11
109.2128094298402
 21
29.64999985462595
 31
0.0
  0
LINE
  5
14C5
330
149A
100
AcDbEntity
  8
0
 62
     7
100
AcDbLine
 10
109.2128094298402
 20
29.64999985462595
 30
0.0
 11
110.0138094298402
 21
29.64999985462595
 31
0.0
  0
LINE
  5
14C6
330
149A
100
AcDbEntity
  8
0
 62
     7
100
AcDbLine
 10
110.0138094298402
 20
29.64999985462595
 30
0.0
 11
110.0138094298402
 21
29.0509998546259
 31
0.0
  0
LINE
  5
14C7
330
149A
100
AcDbEntity
  8
0
 62
     7
100
AcDbLine
 10
110.0138094298402
 20
29.0509998546259
 30
0.0
 11
124.0128094298402
 21
29.0509998546259
 31
0.0
  0
LINE
  5
14C8
330
149A
100
AcDbEntity
  8
0
 62
     7
100
AcDbLine
 10
124.0128094298402
 20
29.0509998546259
 30
0.0
 11
124.0128094298402
 21
29.64999985462595
 31
0.0
  0
LINE
  5
14C9
330
149A
100
AcDbEntity
  8
0
 62
     7
100
AcDbLine
 10
124.0128094298402
 20
29.64999985462595
 30
0.0
 11
124.8138094298402
 21
29.64999985462595
 31
0.0
  0
LINE
  5
14CA
330
149A
100
AcDbEntity
  8
0
 62
     7
100
AcDbLine
 10
124.8138094298402
 20
29.64999985462595
 30
0.0
 11
124.8138094298402
 21
42.45199985462597
 31
0.0
  0
LINE
  5
14CB
330
149A
100
AcDbEntity
  8
0
 62
     7
100
AcDbLine
 10
124.8138094298402
 20
42.45199985462597
 30
0.0
 11
124.0128094298402
 21
42.45199985462597
 31
0.0
  0
LINE
  5
14CC
330
149A
100
AcDbEntity
  8
0
 62
     7
100
AcDbLine
 10
124.0128094298402
 20
42.45199985462597
 30
0.0
 11
124.0128094298402
 21
43.04999985462592
 31
0.0
  0
LINE
  5
14CD
330
149A
100
AcDbEntity
  8
0
 62
     7
100
AcDbLine
 10
124.0128094298402
 20
43.04999985462592
 30
0.0
 11
110.0138094298402
 21
43.04999985462592
 31
0.0
  0
LINE
  5
14CE
330
149A
100
AcDbEntity
  8
0
 62
     7
100
AcDbLine
 10
31.14460942984022
 20
48.10099985462596
 30
0.0
 11
31.14460942984022
 21
48.6999998546259
 31
0.0
  0
LINE
  5
14CF
330
149A
100
AcDbEntity
  8
0
 62
     7
100
AcDbLine
 10
31.14460942984022
 20
48.6999998546259
 30
0.0
 11
31.94520942984019
 21
48.6999998546259
 31
0.0
  0
LINE
  5
14D0
330
149A
100
AcDbEntity
  8
0
 62
     7
100
AcDbLine
 10
31.94520942984019
 20
48.6999998546259
 30
0.0
 11
31.94520942984019
 21
61.50199985462592
 31
0.0
  0
LINE
  5
14D1
330
149A
100
AcDbEntity
  8
0
 62
     7
100
AcDbLine
 10
31.94520942984019
 20
61.50199985462592
 30
0.0
 11
31.14460942984022
 21
61.50199985462592
 31
0.0
  0
LINE
  5
14D2
330
149A
100
AcDbEntity
  8
0
 62
     7
100
AcDbLine
 10
31.14460942984022
 20
61.50199985462592
 30
0.0
 11
31.14460942984022
 21
62.09999985462599
 31
0.0
  0
LINE
  5
14D3
330
149A
100
AcDbEntity
  8
0
 62
     7
100
AcDbLine
 10
43.33900942984018
 20
62.09999985462599
 30
0.0
 11
43.33900942984018
 21
61.50199985462592
 31
0.0
  0
LINE
  5
14D4
330
149A
100
AcDbEntity
  8
0
 62
     7
100
AcDbLine
 10
43.33900942984018
 20
61.50199985462592
 30
0.0
 11
42.5382094298402
 21
61.50199985462592
 31
0.0
  0
LINE
  5
14D5
330
149A
100
AcDbEntity
  8
0
 62
     7
100
AcDbLine
 10
42.5382094298402
 20
61.50199985462592
 30
0.0
 11
42.5382094298402
 21
48.6999998546259
 31
0.0
  0
LINE
  5
14D6
330
149A
100
AcDbEntity
  8
0
 62
     7
100
AcDbLine
 10
42.5382094298402
 20
48.6999998546259
 30
0.0
 11
43.33900942984018
 21
48.6999998546259
 31
0.0
  0
LINE
  5
14D7
330
149A
100
AcDbEntity
  8
0
 62
     7
100
AcDbLine
 10
43.33900942984018
 20
48.6999998546259
 30
0.0
 11
43.33900942984018
 21
48.10099985462596
 31
0.0
  0
LINE
  5
14D8
330
149A
100
AcDbEntity
  8
0
 62
     7
100
AcDbLine
 10
43.33900942984018
 20
48.10099985462596
 30
0.0
 11
57.33830942984019
 21
48.10099985462596
 31
0.0
  0
LINE
  5
14D9
330
149A
100
AcDbEntity
  8
0
 62
     7
100
AcDbLine
 10
57.33830942984019
 20
48.10099985462596
 30
0.0
 11
57.33830942984019
 21
48.6999998546259
 31
0.0
  0
LINE
  5
14DA
330
149A
100
AcDbEntity
  8
0
 62
     7
100
AcDbLine
 10
57.33830942984019
 20
48.6999998546259
 30
0.0
 11
58.13910942984023
 21
48.6999998546259
 31
0.0
  0
LINE
  5
14DB
330
149A
100
AcDbEntity
  8
0
 62
     7
100
AcDbLine
 10
58.13910942984023
 20
48.6999998546259
 30
0.0
 11
58.13910942984023
 21
61.50199985462592
 31
0.0
  0
LINE
  5
14DC
330
149A
100
AcDbEntity
  8
0
 62
     7
100
AcDbLine
 10
58.13910942984023
 20
61.50199985462592
 30
0.0
 11
57.33830942984019
 21
61.50199985462592
 31
0.0
  0
LINE
  5
14DD
330
149A
100
AcDbEntity
  8
0
 62
     7
100
AcDbLine
 10
57.33830942984019
 20
61.50199985462592
 30
0.0
 11
57.33830942984019
 21
62.09999985462599
 31
0.0
  0
LINE
  5
14DE
330
149A
100
AcDbEntity
  8
0
 62
     7
100
AcDbLine
 10
57.33830942984019
 20
62.09999985462599
 30
0.0
 11
43.33900942984018
 21
62.09999985462599
 31
0.0
  0
LINE
  5
14DF
330
149A
100
AcDbEntity
  8
0
 62
     7
100
AcDbLine
 10
62.3890094298402
 20
62.09999985462599
 30
0.0
 11
62.3890094298402
 21
61.50199985462592
 31
0.0
  0
LINE
  5
14E0
330
149A
100
AcDbEntity
  8
0
 62
     7
100
AcDbLine
 10
62.3890094298402
 20
61.50199985462592
 30
0.0
 11
61.58820942984021
 21
61.50199985462592
 31
0.0
  0
LINE
  5
14E1
330
149A
100
AcDbEntity
  8
0
 62
     7
100
AcDbLine
 10
61.58820942984021
 20
61.50199985462592
 30
0.0
 11
61.58820942984021
 21
48.6999998546259
 31
0.0
  0
LINE
  5
14E2
330
149A
100
AcDbEntity
  8
0
 62
     7
100
AcDbLine
 10
61.58820942984021
 20
48.6999998546259
 30
0.0
 11
62.3890094298402
 21
48.6999998546259
 31
0.0
  0
LINE
  5
14E3
330
149A
100
AcDbEntity
  8
0
 62
     7
100
AcDbLine
 10
62.3890094298402
 20
48.6999998546259
 30
0.0
 11
62.3890094298402
 21
48.10099985462596
 31
0.0
  0
LINE
  5
14E4
330
149A
100
AcDbEntity
  8
0
 62
     7
100
AcDbLine
 10
62.3890094298402
 20
48.10099985462596
 30
0.0
 11
76.38830942984021
 21
48.10099985462596
 31
0.0
  0
LINE
  5
14E5
330
149A
100
AcDbEntity
  8
0
 62
     7
100
AcDbLine
 10
76.38830942984021
 20
48.10099985462596
 30
0.0
 11
76.38830942984021
 21
48.6999998546259
 31
0.0
  0
LINE
  5
14E6
330
149A
100
AcDbEntity
  8
0
 62
     7
100
AcDbLine
 10
76.38830942984021
 20
48.6999998546259
 30
0.0
 11
77.18910942984024
 21
48.6999998546259
 31
0.0
  0
LINE
  5
14E7
330
149A
100
AcDbEntity
  8
0
 62
     7
100
AcDbLine
 10
77.18910942984024
 20
48.6999998546259
 30
0.0
 11
77.18910942984024
 21
61.50199985462592
 31
0.0
  0
LINE
  5
14E8
330
149A
100
AcDbEntity
  8
0
 62
     7
100
AcDbLine
 10
77.18910942984024
 20
61.50199985462592
 30
0.0
 11
76.38830942984021
 21
61.50199985462592
 31
0.0
  0
LINE
  5
14E9
330
149A
100
AcDbEntity
  8
0
 62
     7
100
AcDbLine
 10
76.38830942984021
 20
61.50199985462592
 30
0.0
 11
76.38830942984021
 21
62.09999985462599
 31
0.0
  0
LINE
  5
14EA
330
149A
100
AcDbEntity
  8
0
 62
     7
100
AcDbLine
 10
76.38830942984021
 20
62.09999985462599
 30
0.0
 11
62.3890094298402
 21
62.09999985462599
 31
0.0
  0
LINE
  5
14EB
330
149A
100
AcDbEntity
  8
0
 62
     7
100
AcDbLine
 10
81.43900942984021
 20
62.09999985462599
 30
0.0
 11
81.43900942984021
 21
61.50199985462592
 31
0.0
  0
LINE
  5
14EC
330
149A
100
AcDbEntity
  8
0
 62
     7
100
AcDbLine
 10
81.43900942984021
 20
61.50199985462592
 30
0.0
 11
80.63820942984023
 21
61.50199985462592
 31
0.0
  0
LINE
  5
14ED
330
149A
100
AcDbEntity
  8
0
 62
     7
100
AcDbLine
 10
80.63820942984023
 20
61.50199985462592
 30
0.0
 11
80.63820942984023
 21
48.6999998546259
 31
0.0
  0
LINE
  5
14EE
330
149A
100
AcDbEntity
  8
0
 62
     7
100
AcDbLine
 10
80.63820942984023
 20
48.6999998546259
 30
0.0
 11
81.43900942984021
 21
48.6999998546259
 31
0.0
  0
LINE
  5
14EF
330
149A
100
AcDbEntity
  8
0
 62
     7
100
AcDbLine
 10
81.43900942984021
 20
48.6999998546259
 30
0.0
 11
81.43900942984021
 21
48.10099985462596
 31
0.0
  0
LINE
  5
14F0
330
149A
100
AcDbEntity
  8
0
 62
     7
100
AcDbLine
 10
81.43900942984021
 20
48.10099985462596
 30
0.0
 11
95.43830942984021
 21
48.10099985462596
 31
0.0
  0
LINE
  5
14F1
330
149A
100
AcDbEntity
  8
0
 62
     7
100
AcDbLine
 10
95.43830942984021
 20
48.10099985462596
 30
0.0
 11
95.43830942984021
 21
48.6999998546259
 31
0.0
  0
LINE
  5
14F2
330
149A
100
AcDbEntity
  8
0
 62
     7
100
AcDbLine
 10
95.43830942984021
 20
48.6999998546259
 30
0.0
 11
96.2391094298402
 21
48.6999998546259
 31
0.0
  0
LINE
  5
14F3
330
149A
100
AcDbEntity
  8
0
 62
     7
100
AcDbLine
 10
96.2391094298402
 20
48.6999998546259
 30
0.0
 11
96.2391094298402
 21
61.50199985462592
 31
0.0
  0
LINE
  5
14F4
330
149A
100
AcDbEntity
  8
0
 62
     7
100
AcDbLine
 10
96.2391094298402
 20
61.50199985462592
 30
0.0
 11
95.43830942984021
 21
61.50199985462592
 31
0.0
  0
LINE
  5
14F5
330
149A
100
AcDbEntity
  8
0
 62
     7
100
AcDbLine
 10
95.43830942984021
 20
61.50199985462592
 30
0.0
 11
95.43830942984021
 21
62.09999985462599
 31
0.0
  0
LINE
  5
14F6
330
149A
100
AcDbEntity
  8
0
 62
     7
100
AcDbLine
 10
95.43830942984021
 20
62.09999985462599
 30
0.0
 11
81.43900942984021
 21
62.09999985462599
 31
0.0
  0
LINE
  5
14F7
330
149A
100
AcDbEntity
  8
0
 62
     7
100
AcDbLine
 10
100.4890094298402
 20
62.09999985462599
 30
0.0
 11
100.4890094298402
 21
61.50199985462592
 31
0.0
  0
LINE
  5
14F8
330
149A
100
AcDbEntity
  8
0
 62
     7
100
AcDbLine
 10
100.4890094298402
 20
61.50199985462592
 30
0.0
 11
99.68820942984024
 21
61.50199985462592
 31
0.0
  0
LINE
  5
14F9
330
149A
100
AcDbEntity
  8
0
 62
     7
100
AcDbLine
 10
99.68820942984024
 20
61.50199985462592
 30
0.0
 11
99.68820942984024
 21
48.6999998546259
 31
0.0
  0
LINE
  5
14FA
330
149A
100
AcDbEntity
  8
0
 62
     7
100
AcDbLine
 10
99.68820942984024
 20
48.6999998546259
 30
0.0
 11
100.4890094298402
 21
48.6999998546259
 31
0.0
  0
LINE
  5
14FB
330
149A
100
AcDbEntity
  8
0
 62
     7
100
AcDbLine
 10
100.4890094298402
 20
48.6999998546259
 30
0.0
 11
100.4890094298402
 21
48.10099985462596
 31
0.0
  0
LINE
  5
14FC
330
149A
100
AcDbEntity
  8
0
 62
     7
100
AcDbLine
 10
100.4890094298402
 20
48.10099985462596
 30
0.0
 11
114.4878094298402
 21
48.10099985462596
 31
0.0
  0
LINE
  5
14FD
330
149A
100
AcDbEntity
  8
0
 62
     7
100
AcDbLine
 10
114.4878094298402
 20
48.10099985462596
 30
0.0
 11
114.4878094298402
 21
48.6999998546259
 31
0.0
  0
LINE
  5
14FE
330
149A
100
AcDbEntity
  8
0
 62
     7
100
AcDbLine
 10
114.4878094298402
 20
48.6999998546259
 30
0.0
 11
115.2888094298402
 21
48.6999998546259
 31
0.0
  0
LINE
  5
14FF
330
149A
100
AcDbEntity
  8
0
 62
     7
100
AcDbLine
 10
115.2888094298402
 20
48.6999998546259
 30
0.0
 11
115.2888094298402
 21
61.50199985462592
 31
0.0
  0
LINE
  5
1500
330
149A
100
AcDbEntity
  8
0
 62
     7
100
AcDbLine
 10
115.2888094298402
 20
61.50199985462592
 30
0.0
 11
114.4878094298402
 21
61.50199985462592
 31
0.0
  0
LINE
  5
1501
330
149A
100
AcDbEntity
  8
0
 62
     7
100
AcDbLine
 10
114.4878094298402
 20
61.50199985462592
 30
0.0
 11
114.4878094298402
 21
62.09999985462599
 31
0.0
  0
LINE
  5
1502
330
149A
100
AcDbEntity
  8
0
 62
     7
100
AcDbLine
 10
114.4878094298402
 20
62.09999985462599
 30
0.0
 11
100.4890094298402
 21
62.09999985462599
 31
0.0
  0
LINE
  5
1503
330
149A
100
AcDbEntity
  8
0
 62
     7
100
AcDbLine
 10
119.5388094298402
 20
62.09999985462599
 30
0.0
 11
119.5388094298402
 21
61.50199985462592
 31
0.0
  0
LINE
  5
1504
330
149A
100
AcDbEntity
  8
0
 62
     7
100
AcDbLine
 10
119.5388094298402
 20
61.50199985462592
 30
0.0
 11
118.7378094298402
 21
61.50199985462592
 31
0.0
  0
LINE
  5
1505
330
149A
100
AcDbEntity
  8
0
 62
     7
100
AcDbLine
 10
118.7378094298402
 20
61.50199985462592
 30
0.0
 11
118.7378094298402
 21
48.6999998546259
 31
0.0
  0
LINE
  5
1506
330
149A
100
AcDbEntity
  8
0
 62
     7
100
AcDbLine
 10
118.7378094298402
 20
48.6999998546259
 30
0.0
 11
119.5388094298402
 21
48.6999998546259
 31
0.0
  0
LINE
  5
1507
330
149A
100
AcDbEntity
  8
0
 62
     7
100
AcDbLine
 10
119.5388094298402
 20
48.6999998546259
 30
0.0
 11
119.5388094298402
 21
48.10099985462596
 31
0.0
  0
LINE
  5
1508
330
149A
100
AcDbEntity
  8
0
 62
     7
100
AcDbLine
 10
119.5388094298402
 20
48.10099985462596
 30
0.0
 11
133.5378094298402
 21
48.10099985462596
 31
0.0
  0
LINE
  5
1509
330
149A
100
AcDbEntity
  8
0
 62
     7
100
AcDbLine
 10
133.5378094298402
 20
48.10099985462596
 30
0.0
 11
133.5378094298402
 21
48.6999998546259
 31
0.0
  0
LINE
  5
150A
330
149A
100
AcDbEntity
  8
0
 62
     7
100
AcDbLine
 10
133.5378094298402
 20
48.6999998546259
 30
0.0
 11
134.3388094298402
 21
48.6999998546259
 31
0.0
  0
LINE
  5
150B
330
149A
100
AcDbEntity
  8
0
 62
     7
100
AcDbLine
 10
134.3388094298402
 20
48.6999998546259
 30
0.0
 11
134.3388094298402
 21
61.50199985462592
 31
0.0
  0
LINE
  5
150C
330
149A
100
AcDbEntity
  8
0
 62
     7
100
AcDbLine
 10
134.3388094298402
 20
61.50199985462592
 30
0.0
 11
133.5378094298402
 21
61.50199985462592
 31
0.0
  0
LINE
  5
150D
330
149A
100
AcDbEntity
  8
0
 62
     7
100
AcDbLine
 10
133.5378094298402
 20
61.50199985462592
 30
0.0
 11
133.5378094298402
 21
62.09999985462599
 31
0.0
  0
LINE
  5
150E
330
149A
100
AcDbEntity
  8
0
 62
     7
100
AcDbLine
 10
133.5378094298402
 20
62.09999985462599
 30
0.0
 11
119.5388094298402
 21
62.09999985462599
 31
0.0
  0
LINE
  5
150F
330
149A
100
AcDbEntity
  8
0
 62
     7
100
AcDbLine
 10
14.76390942984022
 20
81.14999985462594
 30
0.0
 11
14.76390942984022
 21
80.55099985462589
 31
0.0
  0
LINE
  5
1510
330
149A
100
AcDbEntity
  8
0
 62
     7
100
AcDbLine
 10
14.76390942984022
 20
80.55099985462589
 30
0.0
 11
13.96320942984022
 21
80.55099985462589
 31
0.0
  0
LINE
  5
1511
330
149A
100
AcDbEntity
  8
0
 62
     7
100
AcDbLine
 10
13.96320942984022
 20
80.55099985462589
 30
0.0
 11
13.96320942984022
 21
67.74999985462597
 31
0.0
  0
LINE
  5
1512
330
149A
100
AcDbEntity
  8
0
 62
     7
100
AcDbLine
 10
13.96320942984022
 20
67.74999985462597
 30
0.0
 11
14.76390942984022
 21
67.74999985462597
 31
0.0
  0
LINE
  5
1513
330
149A
100
AcDbEntity
  8
0
 62
     7
100
AcDbLine
 10
14.76390942984022
 20
67.74999985462597
 30
0.0
 11
14.76390942984022
 21
67.15099985462592
 31
0.0
  0
LINE
  5
1514
330
149A
100
AcDbEntity
  8
0
 62
     7
100
AcDbLine
 10
14.76390942984022
 20
67.15099985462592
 30
0.0
 11
28.76340942984024
 21
67.15099985462592
 31
0.0
  0
LINE
  5
1515
330
149A
100
AcDbEntity
  8
0
 62
     7
100
AcDbLine
 10
28.76340942984024
 20
67.15099985462592
 30
0.0
 11
28.76340942984024
 21
67.74999985462597
 31
0.0
  0
LINE
  5
1516
330
149A
100
AcDbEntity
  8
0
 62
     7
100
AcDbLine
 10
28.76340942984024
 20
67.74999985462597
 30
0.0
 11
29.56400942984021
 21
67.74999985462597
 31
0.0
  0
LINE
  5
1517
330
149A
100
AcDbEntity
  8
0
 62
     7
100
AcDbLine
 10
29.56400942984021
 20
67.74999985462597
 30
0.0
 11
29.56400942984021
 21
80.55099985462589
 31
0.0
  0
LINE
  5
1518
330
149A
100
AcDbEntity
  8
0
 62
     7
100
AcDbLine
 10
29.56400942984021
 20
80.55099985462589
 30
0.0
 11
28.76340942984024
 21
80.55099985462589
 31
0.0
  0
LINE
  5
1519
330
149A
100
AcDbEntity
  8
0
 62
     7
100
AcDbLine
 10
28.76340942984024
 20
80.55099985462589
 30
0.0
 11
28.76340942984024
 21
81.14999985462594
 31
0.0
  0
LINE
  5
151A
330
149A
100
AcDbEntity
  8
0
 62
     7
100
AcDbLine
 10
28.76340942984024
 20
81.14999985462594
 30
0.0
 11
14.76390942984022
 21
81.14999985462594
 31
0.0
  0
LINE
  5
151B
330
149A
100
AcDbEntity
  8
0
 62
     7
100
AcDbLine
 10
38.5765094298402
 20
81.14999985462594
 30
0.0
 11
38.5765094298402
 21
80.55099985462589
 31
0.0
  0
LINE
  5
151C
330
149A
100
AcDbEntity
  8
0
 62
     7
100
AcDbLine
 10
38.5765094298402
 20
80.55099985462589
 30
0.0
 11
37.77710942984021
 21
80.55099985462589
 31
0.0
  0
LINE
  5
151D
330
149A
100
AcDbEntity
  8
0
 62
     7
100
AcDbLine
 10
37.77710942984021
 20
80.55099985462589
 30
0.0
 11
37.77710942984021
 21
67.74999985462597
 31
0.0
  0
LINE
  5
151E
330
149A
100
AcDbEntity
  8
0
 62
     7
100
AcDbLine
 10
37.77710942984021
 20
67.74999985462597
 30
0.0
 11
38.5765094298402
 21
67.74999985462597
 31
0.0
  0
LINE
  5
151F
330
149A
100
AcDbEntity
  8
0
 62
     7
100
AcDbLine
 10
38.5765094298402
 20
67.74999985462597
 30
0.0
 11
38.5765094298402
 21
67.15099985462592
 31
0.0
  0
LINE
  5
1520
330
149A
100
AcDbEntity
  8
0
 62
     7
100
AcDbLine
 10
38.5765094298402
 20
67.15099985462592
 30
0.0
 11
52.57720942984019
 21
67.15099985462592
 31
0.0
  0
LINE
  5
1521
330
149A
100
AcDbEntity
  8
0
 62
     7
100
AcDbLine
 10
52.57720942984019
 20
67.15099985462592
 30
0.0
 11
52.57720942984019
 21
67.74999985462597
 31
0.0
  0
LINE
  5
1522
330
149A
100
AcDbEntity
  8
0
 62
     7
100
AcDbLine
 10
52.57720942984019
 20
67.74999985462597
 30
0.0
 11
53.37660942984024
 21
67.74999985462597
 31
0.0
  0
LINE
  5
1523
330
149A
100
AcDbEntity
  8
0
 62
     7
100
AcDbLine
 10
53.37660942984024
 20
67.74999985462597
 30
0.0
 11
53.37660942984024
 21
80.55099985462589
 31
0.0
  0
LINE
  5
1524
330
149A
100
AcDbEntity
  8
0
 62
     7
100
AcDbLine
 10
53.37660942984024
 20
80.55099985462589
 30
0.0
 11
52.57720942984019
 21
80.55099985462589
 31
0.0
  0
LINE
  5
1525
330
149A
100
AcDbEntity
  8
0
 62
     7
100
AcDbLine
 10
52.57720942984019
 20
80.55099985462589
 30
0.0
 11
52.57720942984019
 21
81.14999985462594
 31
0.0
  0
LINE
  5
1526
330
149A
100
AcDbEntity
  8
0
 62
     7
100
AcDbLine
 10
52.57720942984019
 20
81.14999985462594
 30
0.0
 11
38.5765094298402
 21
81.14999985462594
 31
0.0
  0
LINE
  5
1527
330
149A
100
AcDbEntity
  8
0
 62
     7
100
AcDbLine
 10
57.62650942984021
 20
81.14999985462594
 30
0.0
 11
57.62650942984021
 21
80.55099985462589
 31
0.0
  0
LINE
  5
1528
330
149A
100
AcDbEntity
  8
0
 62
     7
100
AcDbLine
 10
57.62650942984021
 20
80.55099985462589
 30
0.0
 11
56.82710942984022
 21
80.55099985462589
 31
0.0
  0
LINE
  5
1529
330
149A
100
AcDbEntity
  8
0
 62
     7
100
AcDbLine
 10
56.82710942984022
 20
80.55099985462589
 30
0.0
 11
56.82710942984022
 21
67.74999985462597
 31
0.0
  0
LINE
  5
152A
330
149A
100
AcDbEntity
  8
0
 62
     7
100
AcDbLine
 10
56.82710942984022
 20
67.74999985462597
 30
0.0
 11
57.62650942984021
 21
67.74999985462597
 31
0.0
  0
LINE
  5
152B
330
149A
100
AcDbEntity
  8
0
 62
     7
100
AcDbLine
 10
57.62650942984021
 20
67.74999985462597
 30
0.0
 11
57.62650942984021
 21
67.15099985462592
 31
0.0
  0
LINE
  5
152C
330
149A
100
AcDbEntity
  8
0
 62
     7
100
AcDbLine
 10
57.62650942984021
 20
67.15099985462592
 30
0.0
 11
71.6272094298402
 21
67.15099985462592
 31
0.0
  0
LINE
  5
152D
330
149A
100
AcDbEntity
  8
0
 62
     7
100
AcDbLine
 10
71.6272094298402
 20
67.15099985462592
 30
0.0
 11
71.6272094298402
 21
67.74999985462597
 31
0.0
  0
LINE
  5
152E
330
149A
100
AcDbEntity
  8
0
 62
     7
100
AcDbLine
 10
71.6272094298402
 20
67.74999985462597
 30
0.0
 11
72.4266094298402
 21
67.74999985462597
 31
0.0
  0
LINE
  5
152F
330
149A
100
AcDbEntity
  8
0
 62
     7
100
AcDbLine
 10
72.4266094298402
 20
67.74999985462597
 30
0.0
 11
72.4266094298402
 21
80.55099985462589
 31
0.0
  0
LINE
  5
1530
330
149A
100
AcDbEntity
  8
0
 62
     7
100
AcDbLine
 10
72.4266094298402
 20
80.55099985462589
 30
0.0
 11
71.6272094298402
 21
80.55099985462589
 31
0.0
  0
LINE
  5
1531
330
149A
100
AcDbEntity
  8
0
 62
     7
100
AcDbLine
 10
71.6272094298402
 20
80.55099985462589
 30
0.0
 11
71.6272094298402
 21
81.14999985462594
 31
0.0
  0
LINE
  5
1532
330
149A
100
AcDbEntity
  8
0
 62
     7
100
AcDbLine
 10
71.6272094298402
 20
81.14999985462594
 30
0.0
 11
57.62650942984021
 21
81.14999985462594
 31
0.0
  0
LINE
  5
1533
330
149A
100
AcDbEntity
  8
0
 62
     7
100
AcDbLine
 10
76.67650942984022
 20
81.14999985462594
 30
0.0
 11
76.67650942984022
 21
80.55099985462589
 31
0.0
  0
LINE
  5
1534
330
149A
100
AcDbEntity
  8
0
 62
     7
100
AcDbLine
 10
76.67650942984022
 20
80.55099985462589
 30
0.0
 11
75.87710942984023
 21
80.55099985462589
 31
0.0
  0
LINE
  5
1535
330
149A
100
AcDbEntity
  8
0
 62
     7
100
AcDbLine
 10
75.87710942984023
 20
80.55099985462589
 30
0.0
 11
75.87710942984023
 21
67.74999985462597
 31
0.0
  0
LINE
  5
1536
330
149A
100
AcDbEntity
  8
0
 62
     7
100
AcDbLine
 10
75.87710942984023
 20
67.74999985462597
 30
0.0
 11
76.67650942984022
 21
67.74999985462597
 31
0.0
  0
LINE
  5
1537
330
149A
100
AcDbEntity
  8
0
 62
     7
100
AcDbLine
 10
76.67650942984022
 20
67.74999985462597
 30
0.0
 11
76.67650942984022
 21
67.15099985462592
 31
0.0
  0
LINE
  5
1538
330
149A
100
AcDbEntity
  8
0
 62
     7
100
AcDbLine
 10
76.67650942984022
 20
67.15099985462592
 30
0.0
 11
90.67720942984022
 21
67.15099985462592
 31
0.0
  0
LINE
  5
1539
330
149A
100
AcDbEntity
  8
0
 62
     7
100
AcDbLine
 10
90.67720942984022
 20
67.15099985462592
 30
0.0
 11
90.67720942984022
 21
67.74999985462597
 31
0.0
  0
LINE
  5
153A
330
149A
100
AcDbEntity
  8
0
 62
     7
100
AcDbLine
 10
90.67720942984022
 20
67.74999985462597
 30
0.0
 11
91.47660942984021
 21
67.74999985462597
 31
0.0
  0
LINE
  5
153B
330
149A
100
AcDbEntity
  8
0
 62
     7
100
AcDbLine
 10
91.47660942984021
 20
67.74999985462597
 30
0.0
 11
91.47660942984021
 21
80.55099985462589
 31
0.0
  0
LINE
  5
153C
330
149A
100
AcDbEntity
  8
0
 62
     7
100
AcDbLine
 10
91.47660942984021
 20
80.55099985462589
 30
0.0
 11
90.67720942984022
 21
80.55099985462589
 31
0.0
  0
LINE
  5
153D
330
149A
100
AcDbEntity
  8
0
 62
     7
100
AcDbLine
 10
90.67720942984022
 20
80.55099985462589
 30
0.0
 11
90.67720942984022
 21
81.14999985462594
 31
0.0
  0
LINE
  5
153E
330
149A
100
AcDbEntity
  8
0
 62
     7
100
AcDbLine
 10
90.67720942984022
 20
81.14999985462594
 30
0.0
 11
76.67650942984022
 21
81.14999985462594
 31
0.0
  0
LINE
  5
153F
330
149A
100
AcDbEntity
  8
0
 62
     7
100
AcDbLine
 10
95.72650942984017
 20
81.14999985462594
 30
0.0
 11
95.72650942984017
 21
80.55099985462589
 31
0.0
  0
LINE
  5
1540
330
149A
100
AcDbEntity
  8
0
 62
     7
100
AcDbLine
 10
95.72650942984017
 20
80.55099985462589
 30
0.0
 11
94.92710942984018
 21
80.55099985462589
 31
0.0
  0
LINE
  5
1541
330
149A
100
AcDbEntity
  8
0
 62
     7
100
AcDbLine
 10
94.92710942984018
 20
80.55099985462589
 30
0.0
 11
94.92710942984018
 21
67.74999985462597
 31
0.0
  0
LINE
  5
1542
330
149A
100
AcDbEntity
  8
0
 62
     7
100
AcDbLine
 10
94.92710942984018
 20
67.74999985462597
 30
0.0
 11
95.72650942984017
 21
67.74999985462597
 31
0.0
  0
LINE
  5
1543
330
149A
100
AcDbEntity
  8
0
 62
     7
100
AcDbLine
 10
95.72650942984017
 20
67.74999985462597
 30
0.0
 11
95.72650942984017
 21
67.15099985462592
 31
0.0
  0
LINE
  5
1544
330
149A
100
AcDbEntity
  8
0
 62
     7
100
AcDbLine
 10
95.72650942984017
 20
67.15099985462592
 30
0.0
 11
109.7268094298402
 21
67.15099985462592
 31
0.0
  0
LINE
  5
1545
330
149A
100
AcDbEntity
  8
0
 62
     7
100
AcDbLine
 10
109.7268094298402
 20
67.15099985462592
 30
0.0
 11
109.7268094298402
 21
67.74999985462597
 31
0.0
  0
LINE
  5
1546
330
149A
100
AcDbEntity
  8
0
 62
     7
100
AcDbLine
 10
109.7268094298402
 20
67.74999985462597
 30
0.0
 11
110.5268094298402
 21
67.74999985462597
 31
0.0
  0
LINE
  5
1547
330
149A
100
AcDbEntity
  8
0
 62
     7
100
AcDbLine
 10
110.5268094298402
 20
67.74999985462597
 30
0.0
 11
110.5268094298402
 21
80.55099985462589
 31
0.0
  0
LINE
  5
1548
330
149A
100
AcDbEntity
  8
0
 62
     7
100
AcDbLine
 10
110.5268094298402
 20
80.55099985462589
 30
0.0
 11
109.7268094298402
 21
80.55099985462589
 31
0.0
  0
LINE
  5
1549
330
149A
100
AcDbEntity
  8
0
 62
     7
100
AcDbLine
 10
109.7268094298402
 20
80.55099985462589
 30
0.0
 11
109.7268094298402
 21
81.14999985462594
 31
0.0
  0
LINE
  5
154A
330
149A
100
AcDbEntity
  8
0
 62
     7
100
AcDbLine
 10
109.7268094298402
 20
81.14999985462594
 30
0.0
 11
95.72650942984017
 21
81.14999985462594
 31
0.0
  0
LINE
  5
154B
330
149A
100
AcDbEntity
  8
0
 62
     7
100
AcDbLine
 10
114.7768094298402
 20
81.14999985462594
 30
0.0
 11
114.7768094298402
 21
80.55099985462589
 31
0.0
  0
LINE
  5
154C
330
149A
100
AcDbEntity
  8
0
 62
     7
100
AcDbLine
 10
114.7768094298402
 20
80.55099985462589
 30
0.0
 11
113.9768094298402
 21
80.55099985462589
 31
0.0
  0
LINE
  5
154D
330
149A
100
AcDbEntity
  8
0
 62
     7
100
AcDbLine
 10
113.9768094298402
 20
80.55099985462589
 30
0.0
 11
113.9768094298402
 21
67.74999985462597
 31
0.0
  0
LINE
  5
154E
330
149A
100
AcDbEntity
  8
0
 62
     7
100
AcDbLine
 10
113.9768094298402
 20
67.74999985462597
 30
0.0
 11
114.7768094298402
 21
67.74999985462597
 31
0.0
  0
LINE
  5
154F
330
149A
100
AcDbEntity
  8
0
 62
     7
100
AcDbLine
 10
114.7768094298402
 20
67.74999985462597
 30
0.0
 11
114.7768094298402
 21
67.15099985462592
 31
0.0
  0
LINE
  5
1550
330
149A
100
AcDbEntity
  8
0
 62
     7
100
AcDbLine
 10
114.7768094298402
 20
67.15099985462592
 30
0.0
 11
128.7768094298402
 21
67.15099985462592
 31
0.0
  0
LINE
  5
1551
330
149A
100
AcDbEntity
  8
0
 62
     7
100
AcDbLine
 10
128.7768094298402
 20
67.15099985462592
 30
0.0
 11
128.7768094298402
 21
67.74999985462597
 31
0.0
  0
LINE
  5
1552
330
149A
100
AcDbEntity
  8
0
 62
     7
100
AcDbLine
 10
128.7768094298402
 20
67.74999985462597
 30
0.0
 11
129.5768094298402
 21
67.74999985462597
 31
0.0
  0
LINE
  5
1553
330
149A
100
AcDbEntity
  8
0
 62
     7
100
AcDbLine
 10
129.5768094298402
 20
67.74999985462597
 30
0.0
 11
129.5768094298402
 21
80.55099985462589
 31
0.0
  0
LINE
  5
1554
330
149A
100
AcDbEntity
  8
0
 62
     7
100
AcDbLine
 10
129.5768094298402
 20
80.55099985462589
 30
0.0
 11
128.7768094298402
 21
80.55099985462589
 31
0.0
  0
LINE
  5
1555
330
149A
100
AcDbEntity
  8
0
 62
     7
100
AcDbLine
 10
128.7768094298402
 20
80.55099985462589
 30
0.0
 11
128.7768094298402
 21
81.14999985462594
 31
0.0
  0
LINE
  5
1556
330
149A
100
AcDbEntity
  8
0
 62
     7
100
AcDbLine
 10
128.7768094298402
 20
81.14999985462594
 30
0.0
 11
114.7768094298402
 21
81.14999985462594
 31
0.0
  0
LINE
  5
1557
330
149A
100
AcDbEntity
  8
0
 62
     7
100
AcDbLine
 10
9.999999429840215
 20
100.1999998546259
 30
0.0
 11
9.999999429840215
 21
99.60199985462594
 31
0.0
  0
LINE
  5
1558
330
149A
100
AcDbEntity
  8
0
 62
     7
100
AcDbLine
 10
9.999999429840215
 20
99.60199985462594
 30
0.0
 11
9.20070942984023
 21
99.60199985462594
 31
0.0
  0
LINE
  5
1559
330
149A
100
AcDbEntity
  8
0
 62
     7
100
AcDbLine
 10
9.20070942984023
 20
99.60199985462594
 30
0.0
 11
9.20070942984023
 21
86.79999985462591
 31
0.0
  0
LINE
  5
155A
330
149A
100
AcDbEntity
  8
0
 62
     7
100
AcDbLine
 10
9.20070942984023
 20
86.79999985462591
 30
0.0
 11
9.999999429840215
 21
86.79999985462591
 31
0.0
  0
LINE
  5
155B
330
149A
100
AcDbEntity
  8
0
 62
     7
100
AcDbLine
 10
9.999999429840215
 20
86.79999985462591
 30
0.0
 11
9.999999429840215
 21
86.200999854626
 31
0.0
  0
LINE
  5
155C
330
149A
100
AcDbEntity
  8
0
 62
     7
100
AcDbLine
 10
9.999999429840215
 20
86.200999854626
 30
0.0
 11
24.00220942984021
 21
86.200999854626
 31
0.0
  0
LINE
  5
155D
330
149A
100
AcDbEntity
  8
0
 62
     7
100
AcDbLine
 10
24.00220942984021
 20
86.200999854626
 30
0.0
 11
24.00220942984021
 21
86.79999985462591
 31
0.0
  0
LINE
  5
155E
330
149A
100
AcDbEntity
  8
0
 62
     7
100
AcDbLine
 10
24.00220942984021
 20
86.79999985462591
 30
0.0
 11
24.80150942984022
 21
86.79999985462591
 31
0.0
  0
LINE
  5
155F
330
149A
100
AcDbEntity
  8
0
 62
     7
100
AcDbLine
 10
24.80150942984022
 20
86.79999985462591
 30
0.0
 11
24.80150942984022
 21
99.60199985462594
 31
0.0
  0
LINE
  5
1560
330
149A
100
AcDbEntity
  8
0
 62
     7
100
AcDbLine
 10
24.80150942984022
 20
99.60199985462594
 30
0.0
 11
24.00220942984021
 21
99.60199985462594
 31
0.0
  0
LINE
  5
1561
330
149A
100
AcDbEntity
  8
0
 62
     7
100
AcDbLine
 10
24.00220942984021
 20
99.60199985462594
 30
0.0
 11
24.00220942984021
 21
100.1999998546259
 31
0.0
  0
LINE
  5
1562
330
149A
100
AcDbEntity
  8
0
 62
     7
100
AcDbLine
 10
24.00220942984021
 20
100.1999998546259
 30
0.0
 11
9.999999429840215
 21
100.1999998546259
 31
0.0
  0
LINE
  5
1563
330
149A
100
AcDbEntity
  8
0
 62
     7
100
AcDbLine
 10
29.05140942984019
 20
100.1999998546259
 30
0.0
 11
29.05140942984019
 21
99.60199985462594
 31
0.0
  0
LINE
  5
1564
330
149A
100
AcDbEntity
  8
0
 62
     7
100
AcDbLine
 10
29.05140942984019
 20
99.60199985462594
 30
0.0
 11
28.25210942984023
 21
99.60199985462594
 31
0.0
  0
LINE
  5
1565
330
149A
100
AcDbEntity
  8
0
 62
     7
100
AcDbLine
 10
28.25210942984023
 20
99.60199985462594
 30
0.0
 11
28.25210942984023
 21
86.79999985462591
 31
0.0
  0
LINE
  5
1566
330
149A
100
AcDbEntity
  8
0
 62
     7
100
AcDbLine
 10
28.25210942984023
 20
86.79999985462591
 30
0.0
 11
29.05140942984019
 21
86.79999985462591
 31
0.0
  0
LINE
  5
1567
330
149A
100
AcDbEntity
  8
0
 62
     7
100
AcDbLine
 10
29.05140942984019
 20
86.79999985462591
 30
0.0
 11
29.05140942984019
 21
86.200999854626
 31
0.0
  0
LINE
  5
1568
330
149A
100
AcDbEntity
  8
0
 62
     7
100
AcDbLine
 10
29.05140942984019
 20
86.200999854626
 30
0.0
 11
43.05220942984021
 21
86.200999854626
 31
0.0
  0
LINE
  5
1569
330
149A
100
AcDbEntity
  8
0
 62
     7
100
AcDbLine
 10
43.05220942984021
 20
86.200999854626
 30
0.0
 11
43.05220942984021
 21
86.79999985462591
 31
0.0
  0
LINE
  5
156A
330
149A
100
AcDbEntity
  8
0
 62
     7
100
AcDbLine
 10
43.05220942984021
 20
86.79999985462591
 30
0.0
 11
43.85160942984021
 21
86.79999985462591
 31
0.0
  0
LINE
  5
156B
330
149A
100
AcDbEntity
  8
0
 62
     7
100
AcDbLine
 10
43.85160942984021
 20
86.79999985462591
 30
0.0
 11
43.85160942984021
 21
99.60199985462594
 31
0.0
  0
LINE
  5
156C
330
149A
100
AcDbEntity
  8
0
 62
     7
100
AcDbLine
 10
43.85160942984021
 20
99.60199985462594
 30
0.0
 11
43.05220942984021
 21
99.60199985462594
 31
0.0
  0
LINE
  5
156D
330
149A
100
AcDbEntity
  8
0
 62
     7
100
AcDbLine
 10
43.05220942984021
 20
99.60199985462594
 30
0.0
 11
43.05220942984021
 21
100.1999998546259
 31
0.0
  0
LINE
  5
156E
330
149A
100
AcDbEntity
  8
0
 62
     7
100
AcDbLine
 10
43.05220942984021
 20
100.1999998546259
 30
0.0
 11
29.05140942984019
 21
100.1999998546259
 31
0.0
  0
LINE
  5
156F
330
149A
100
AcDbEntity
  8
0
 62
     7
100
AcDbLine
 10
48.10150942984023
 20
100.1999998546259
 30
0.0
 11
48.10150942984023
 21
99.60199985462594
 31
0.0
  0
LINE
  5
1570
330
149A
100
AcDbEntity
  8
0
 62
     7
100
AcDbLine
 10
48.10150942984023
 20
99.60199985462594
 30
0.0
 11
47.30210942984018
 21
99.60199985462594
 31
0.0
  0
LINE
  5
1571
330
149A
100
AcDbEntity
  8
0
 62
     7
100
AcDbLine
 10
47.30210942984018
 20
99.60199985462594
 30
0.0
 11
47.30210942984018
 21
86.79999985462591
 31
0.0
  0
LINE
  5
1572
330
149A
100
AcDbEntity
  8
0
 62
     7
100
AcDbLine
 10
47.30210942984018
 20
86.79999985462591
 30
0.0
 11
48.10150942984023
 21
86.79999985462591
 31
0.0
  0
LINE
  5
1573
330
149A
100
AcDbEntity
  8
0
 62
     7
100
AcDbLine
 10
48.10150942984023
 20
86.79999985462591
 30
0.0
 11
48.10150942984023
 21
86.200999854626
 31
0.0
  0
LINE
  5
1574
330
149A
100
AcDbEntity
  8
0
 62
     7
100
AcDbLine
 10
48.10150942984023
 20
86.200999854626
 30
0.0
 11
62.10220942984022
 21
86.200999854626
 31
0.0
  0
LINE
  5
1575
330
149A
100
AcDbEntity
  8
0
 62
     7
100
AcDbLine
 10
62.10220942984022
 20
86.200999854626
 30
0.0
 11
62.10220942984022
 21
86.79999985462591
 31
0.0
  0
LINE
  5
1576
330
149A
100
AcDbEntity
  8
0
 62
     7
100
AcDbLine
 10
62.10220942984022
 20
86.79999985462591
 30
0.0
 11
62.90160942984022
 21
86.79999985462591
 31
0.0
  0
LINE
  5
1577
330
149A
100
AcDbEntity
  8
0
 62
     7
100
AcDbLine
 10
62.90160942984022
 20
86.79999985462591
 30
0.0
 11
62.90160942984022
 21
99.60199985462594
 31
0.0
  0
LINE
  5
1578
330
149A
100
AcDbEntity
  8
0
 62
     7
100
AcDbLine
 10
62.90160942984022
 20
99.60199985462594
 30
0.0
 11
62.10220942984022
 21
99.60199985462594
 31
0.0
  0
LINE
  5
1579
330
149A
100
AcDbEntity
  8
0
 62
     7
100
AcDbLine
 10
62.10220942984022
 20
99.60199985462594
 30
0.0
 11
62.10220942984022
 21
100.1999998546259
 31
0.0
  0
LINE
  5
157A
330
149A
100
AcDbEntity
  8
0
 62
     7
100
AcDbLine
 10
62.10220942984022
 20
100.1999998546259
 30
0.0
 11
48.10150942984023
 21
100.1999998546259
 31
0.0
  0
LINE
  5
157B
330
149A
100
AcDbEntity
  8
0
 62
     7
100
AcDbLine
 10
67.15150942984024
 20
100.1999998546259
 30
0.0
 11
67.15150942984024
 21
99.60199985462594
 31
0.0
  0
LINE
  5
157C
330
149A
100
AcDbEntity
  8
0
 62
     7
100
AcDbLine
 10
67.15150942984024
 20
99.60199985462594
 30
0.0
 11
66.3521094298402
 21
99.60199985462594
 31
0.0
  0
LINE
  5
157D
330
149A
100
AcDbEntity
  8
0
 62
     7
100
AcDbLine
 10
66.3521094298402
 20
99.60199985462594
 30
0.0
 11
66.3521094298402
 21
86.79999985462591
 31
0.0
  0
LINE
  5
157E
330
149A
100
AcDbEntity
  8
0
 62
     7
100
AcDbLine
 10
66.3521094298402
 20
86.79999985462591
 30
0.0
 11
67.15150942984024
 21
86.79999985462591
 31
0.0
  0
LINE
  5
157F
330
149A
100
AcDbEntity
  8
0
 62
     7
100
AcDbLine
 10
67.15150942984024
 20
86.79999985462591
 30
0.0
 11
67.15150942984024
 21
86.200999854626
 31
0.0
  0
LINE
  5
1580
330
149A
100
AcDbEntity
  8
0
 62
     7
100
AcDbLine
 10
67.15150942984024
 20
86.200999854626
 30
0.0
 11
81.15220942984018
 21
86.200999854626
 31
0.0
  0
LINE
  5
1581
330
149A
100
AcDbEntity
  8
0
 62
     7
100
AcDbLine
 10
81.15220942984018
 20
86.200999854626
 30
0.0
 11
81.15220942984018
 21
86.79999985462591
 31
0.0
  0
LINE
  5
1582
330
149A
100
AcDbEntity
  8
0
 62
     7
100
AcDbLine
 10
81.15220942984018
 20
86.79999985462591
 30
0.0
 11
81.95160942984022
 21
86.79999985462591
 31
0.0
  0
LINE
  5
1583
330
149A
100
AcDbEntity
  8
0
 62
     7
100
AcDbLine
 10
81.95160942984022
 20
86.79999985462591
 30
0.0
 11
81.95160942984022
 21
99.60199985462594
 31
0.0
  0
LINE
  5
1584
330
149A
100
AcDbEntity
  8
0
 62
     7
100
AcDbLine
 10
81.95160942984022
 20
99.60199985462594
 30
0.0
 11
81.15220942984018
 21
99.60199985462594
 31
0.0
  0
LINE
  5
1585
330
149A
100
AcDbEntity
  8
0
 62
     7
100
AcDbLine
 10
81.15220942984018
 20
99.60199985462594
 30
0.0
 11
81.15220942984018
 21
100.1999998546259
 31
0.0
  0
LINE
  5
1586
330
149A
100
AcDbEntity
  8
0
 62
     7
100
AcDbLine
 10
81.15220942984018
 20
100.1999998546259
 30
0.0
 11
67.15150942984024
 21
100.1999998546259
 31
0.0
  0
LINE
  5
1587
330
149A
100
AcDbEntity
  8
0
 62
     7
100
AcDbLine
 10
86.2015094298402
 20
100.1999998546259
 30
0.0
 11
86.2015094298402
 21
99.60199985462594
 31
0.0
  0
LINE
  5
1588
330
149A
100
AcDbEntity
  8
0
 62
     7
100
AcDbLine
 10
86.2015094298402
 20
99.60199985462594
 30
0.0
 11
85.40210942984021
 21
99.60199985462594
 31
0.0
  0
LINE
  5
1589
330
149A
100
AcDbEntity
  8
0
 62
     7
100
AcDbLine
 10
85.40210942984021
 20
99.60199985462594
 30
0.0
 11
85.40210942984021
 21
86.79999985462591
 31
0.0
  0
LINE
  5
158A
330
149A
100
AcDbEntity
  8
0
 62
     7
100
AcDbLine
 10
85.40210942984021
 20
86.79999985462591
 30
0.0
 11
86.2015094298402
 21
86.79999985462591
 31
0.0
  0
LINE
  5
158B
330
149A
100
AcDbEntity
  8
0
 62
     7
100
AcDbLine
 10
86.2015094298402
 20
86.79999985462591
 30
0.0
 11
86.2015094298402
 21
86.200999854626
 31
0.0
  0
LINE
  5
158C
330
149A
100
AcDbEntity
  8
0
 62
     7
100
AcDbLine
 10
86.2015094298402
 20
86.200999854626
 30
0.0
 11
100.2022094298402
 21
86.200999854626
 31
0.0
  0
LINE
  5
158D
330
149A
100
AcDbEntity
  8
0
 62
     7
100
AcDbLine
 10
100.2022094298402
 20
86.200999854626
 30
0.0
 11
100.2022094298402
 21
86.79999985462591
 31
0.0
  0
LINE
  5
158E
330
149A
100
AcDbEntity
  8
0
 62
     7
100
AcDbLine
 10
100.2022094298402
 20
86.79999985462591
 30
0.0
 11
101.0002094298402
 21
86.79999985462591
 31
0.0
  0
LINE
  5
158F
330
149A
100
AcDbEntity
  8
0
 62
     7
100
AcDbLine
 10
101.0002094298402
 20
86.79999985462591
 30
0.0
 11
101.0002094298402
 21
99.60199985462594
 31
0.0
  0
LINE
  5
1590
330
149A
100
AcDbEntity
  8
0
 62
     7
100
AcDbLine
 10
101.0002094298402
 20
99.60199985462594
 30
0.0
 11
100.2022094298402
 21
99.60199985462594
 31
0.0
  0
LINE
  5
1591
330
149A
100
AcDbEntity
  8
0
 62
     7
100
AcDbLine
 10
100.2022094298402
 20
99.60199985462594
 30
0.0
 11
100.2022094298402
 21
100.1999998546259
 31
0.0
  0
LINE
  5
1592
330
149A
100
AcDbEntity
  8
0
 62
     7
100
AcDbLine
 10
100.2022094298402
 20
100.1999998546259
 30
0.0
 11
86.2015094298402
 21
100.1999998546259
 31
0.0
  0
LINE
  5
1593
330
149A
100
AcDbEntity
  8
0
 62
     7
100
AcDbLine
 10
105.2498094298402
 20
100.1999998546259
 30
0.0
 11
105.2498094298402
 21
99.60199985462594
 31
0.0
  0
LINE
  5
1594
330
149A
100
AcDbEntity
  8
0
 62
     7
100
AcDbLine
 10
105.2498094298402
 20
99.60199985462594
 30
0.0
 11
104.4518094298402
 21
99.60199985462594
 31
0.0
  0
LINE
  5
1595
330
149A
100
AcDbEntity
  8
0
 62
     7
100
AcDbLine
 10
104.4518094298402
 20
99.60199985462594
 30
0.0
 11
104.4518094298402
 21
86.79999985462591
 31
0.0
  0
LINE
  5
1596
330
149A
100
AcDbEntity
  8
0
 62
     7
100
AcDbLine
 10
104.4518094298402
 20
86.79999985462591
 30
0.0
 11
105.2498094298402
 21
86.79999985462591
 31
0.0
  0
LINE
  5
1597
330
149A
100
AcDbEntity
  8
0
 62
     7
100
AcDbLine
 10
105.2498094298402
 20
86.79999985462591
 30
0.0
 11
105.2498094298402
 21
86.200999854626
 31
0.0
  0
LINE
  5
1598
330
149A
100
AcDbEntity
  8
0
 62
     7
100
AcDbLine
 10
105.2498094298402
 20
86.200999854626
 30
0.0
 11
119.2508094298402
 21
86.200999854626
 31
0.0
  0
LINE
  5
1599
330
149A
100
AcDbEntity
  8
0
 62
     7
100
AcDbLine
 10
119.2508094298402
 20
86.200999854626
 30
0.0
 11
119.2508094298402
 21
86.79999985462591
 31
0.0
  0
LINE
  5
159A
330
149A
100
AcDbEntity
  8
0
 62
     7
100
AcDbLine
 10
119.2508094298402
 20
86.79999985462591
 30
0.0
 11
120.0498094298402
 21
86.79999985462591
 31
0.0
  0
LINE
  5
159B
330
149A
100
AcDbEntity
  8
0
 62
     7
100
AcDbLine
 10
120.0498094298402
 20
86.79999985462591
 30
0.0
 11
120.0498094298402
 21
99.60199985462594
 31
0.0
  0
LINE
  5
159C
330
149A
100
AcDbEntity
  8
0
 62
     7
100
AcDbLine
 10
120.0498094298402
 20
99.60199985462594
 30
0.0
 11
119.2508094298402
 21
99.60199985462594
 31
0.0
  0
LINE
  5
159D
330
149A
100
AcDbEntity
  8
0
 62
     7
100
AcDbLine
 10
119.2508094298402
 20
99.60199985462594
 30
0.0
 11
119.2508094298402
 21
100.1999998546259
 31
0.0
  0
LINE
  5
159E
330
149A
100
AcDbEntity
  8
0
 62
     7
100
AcDbLine
 10
119.2508094298402
 20
100.1999998546259
 30
0.0
 11
105.2498094298402
 21
100.1999998546259
 31
0.0
  0
LINE
  5
159F
330
149A
100
AcDbEntity
  8
0
 62
     7
100
AcDbLine
 10
124.2998094298402
 20
100.1999998546259
 30
0.0
 11
124.2998094298402
 21
99.60199985462594
 31
0.0
  0
LINE
  5
15A0
330
149A
100
AcDbEntity
  8
0
 62
     7
100
AcDbLine
 10
124.2998094298402
 20
99.60199985462594
 30
0.0
 11
123.5008094298402
 21
99.60199985462594
 31
0.0
  0
LINE
  5
15A1
330
149A
100
AcDbEntity
  8
0
 62
     7
100
AcDbLine
 10
123.5008094298402
 20
99.60199985462594
 30
0.0
 11
123.5008094298402
 21
86.79999985462591
 31
0.0
  0
LINE
  5
15A2
330
149A
100
AcDbEntity
  8
0
 62
     7
100
AcDbLine
 10
123.5008094298402
 20
86.79999985462591
 30
0.0
 11
124.2998094298402
 21
86.79999985462591
 31
0.0
  0
LINE
  5
15A3
330
149A
100
AcDbEntity
  8
0
 62
     7
100
AcDbLine
 10
124.2998094298402
 20
86.79999985462591
 30
0.0
 11
124.2998094298402
 21
86.200999854626
 31
0.0
  0
LINE
  5
15A4
330
149A
100
AcDbEntity
  8
0
 62
     7
100
AcDbLine
 10
124.2998094298402
 20
86.200999854626
 30
0.0
 11
138.3018094298402
 21
86.200999854626
 31
0.0
  0
LINE
  5
15A5
330
149A
100
AcDbEntity
  8
0
 62
     7
100
AcDbLine
 10
138.3018094298402
 20
86.200999854626
 30
0.0
 11
138.3018094298402
 21
86.79999985462591
 31
0.0
  0
LINE
  5
15A6
330
149A
100
AcDbEntity
  8
0
 62
     7
100
AcDbLine
 10
138.3018094298402
 20
86.79999985462591
 30
0.0
 11
139.1018094298402
 21
86.79999985462591
 31
0.0
  0
LINE
  5
15A7
330
149A
100
AcDbEntity
  8
0
 62
     7
100
AcDbLine
 10
139.1018094298402
 20
86.79999985462591
 30
0.0
 11
139.1018094298402
 21
99.60199985462594
 31
0.0
  0
LINE
  5
15A8
330
149A
100
AcDbEntity
  8
0
 62
     7
100
AcDbLine
 10
139.1018094298402
 20
99.60199985462594
 30
0.0
 11
138.3018094298402
 21
99.60199985462594
 31
0.0
  0
LINE
  5
15A9
330
149A
100
AcDbEntity
  8
0
 62
     7
100
AcDbLine
 10
138.3018094298402
 20
99.60199985462594
 30
0.0
 11
138.3018094298402
 21
100.1999998546259
 31
0.0
  0
LINE
  5
15AA
330
149A
100
AcDbEntity
  8
0
 62
     7
100
AcDbLine
 10
138.3018094298402
 20
100.1999998546259
 30
0.0
 11
124.2998094298402
 21
100.1999998546259
 31
0.0
  0
LINE
  5
15AB
330
149A
100
AcDbEntity
  8
0
 62
     7
100
AcDbLine
 10
15.3564094298402
 20
42.50149985462593
 30
0.0
 11
18.65680942984016
 21
42.50149985462593
 31
0.0
  0
LINE
  5
15AC
330
149A
100
AcDbEntity
  8
0
 62
     7
100
AcDbLine
 10
18.65680942984016
 20
42.50149985462593
 30
0.0
 11
18.65680942984016
 21
28.30069985462598
 31
0.0
  0
LINE
  5
15AD
330
149A
100
AcDbEntity
  8
0
 62
     7
100
AcDbLine
 10
18.65680942984016
 20
28.30069985462598
 30
0.0
 11
15.3564094298402
 21
28.30069985462598
 31
0.0
  0
LINE
  5
15AE
330
149A
100
AcDbEntity
  8
0
 62
     7
100
AcDbLine
 10
15.3564094298402
 20
28.30069985462598
 30
0.0
 11
15.3564094298402
 21
42.50149985462593
 31
0.0
  0
LINE
  5
15AF
330
149A
100
AcDbEntity
  8
0
 62
     7
100
AcDbLine
 10
39.15650942984024
 20
42.50149985462593
 30
0.0
 11
42.45700942984018
 21
42.50149985462593
 31
0.0
  0
LINE
  5
15B0
330
149A
100
AcDbEntity
  8
0
 62
     7
100
AcDbLine
 10
42.45700942984018
 20
42.50149985462593
 30
0.0
 11
42.45700942984018
 21
28.30069985462598
 31
0.0
  0
LINE
  5
15B1
330
149A
100
AcDbEntity
  8
0
 62
     7
100
AcDbLine
 10
42.45700942984018
 20
28.30069985462598
 30
0.0
 11
39.15650942984024
 21
28.30069985462598
 31
0.0
  0
LINE
  5
15B2
330
149A
100
AcDbEntity
  8
0
 62
     7
100
AcDbLine
 10
39.15650942984024
 20
28.30069985462598
 30
0.0
 11
39.15650942984024
 21
42.50149985462593
 31
0.0
  0
LINE
  5
15B3
330
149A
100
AcDbEntity
  8
0
 62
     7
100
AcDbLine
 10
21.90760942984019
 20
43.04999985462592
 30
0.0
 11
21.90760942984019
 21
42.45169985462593
 31
0.0
  0
LINE
  5
15B4
330
149A
100
AcDbEntity
  8
0
 62
     7
100
AcDbLine
 10
21.90760942984019
 20
42.45169985462593
 30
0.0
 11
21.10700942984016
 21
42.45169985462593
 31
0.0
  0
LINE
  5
15B5
330
149A
100
AcDbEntity
  8
0
 62
     7
100
AcDbLine
 10
21.10700942984016
 20
42.45169985462593
 30
0.0
 11
21.10700942984016
 21
29.649799854626
 31
0.0
  0
LINE
  5
15B6
330
149A
100
AcDbEntity
  8
0
 62
     7
100
AcDbLine
 10
21.10700942984016
 20
29.649799854626
 30
0.0
 11
21.90760942984019
 21
29.649799854626
 31
0.0
  0
LINE
  5
15B7
330
149A
100
AcDbEntity
  8
0
 62
     7
100
AcDbLine
 10
21.90760942984019
 20
29.649799854626
 30
0.0
 11
21.90760942984019
 21
29.05039985462594
 31
0.0
  0
LINE
  5
15B8
330
149A
100
AcDbEntity
  8
0
 62
     7
100
AcDbLine
 10
21.90760942984019
 20
29.05039985462594
 30
0.0
 11
35.90710942984021
 21
29.05039985462594
 31
0.0
  0
LINE
  5
15B9
330
149A
100
AcDbEntity
  8
0
 62
     7
100
AcDbLine
 10
35.90710942984021
 20
29.05039985462594
 30
0.0
 11
35.90710942984021
 21
29.649799854626
 31
0.0
  0
LINE
  5
15BA
330
149A
100
AcDbEntity
  8
0
 62
     7
100
AcDbLine
 10
35.90710942984021
 20
29.649799854626
 30
0.0
 11
36.70640942984022
 21
29.649799854626
 31
0.0
  0
LINE
  5
15BB
330
149A
100
AcDbEntity
  8
0
 62
     7
100
AcDbLine
 10
36.70640942984022
 20
29.649799854626
 30
0.0
 11
36.70640942984022
 21
42.45169985462593
 31
0.0
  0
LINE
  5
15BC
330
149A
100
AcDbEntity
  8
0
 62
     7
100
AcDbLine
 10
36.70640942984022
 20
42.45169985462593
 30
0.0
 11
35.90710942984021
 21
42.45169985462593
 31
0.0
  0
LINE
  5
15BD
330
149A
100
AcDbEntity
  8
0
 62
     7
100
AcDbLine
 10
35.90710942984021
 20
42.45169985462593
 30
0.0
 11
35.90710942984021
 21
43.04999985462592
 31
0.0
  0
LINE
  5
15BE
330
149A
100
AcDbEntity
  8
0
  6
Continuous
 62
     7
100
AcDbLine
 10
140.8268094298402
 20
83.67499975561605
 30
0.0
 11
140.8268094298402
 21
129.251999854626
 31
0.0
  0
LINE
  5
15BF
330
149A
100
AcDbEntity
  8
0
  6
Continuous
 62
     7
100
AcDbLine
 10
131.3013094298403
 20
64.62549985462596
 30
0.0
 11
131.3013094298402
 21
83.67549988087791
 31
0.0
  0
LINE
  5
15C0
330
149A
100
AcDbEntity
  8
0
  6
Continuous
 62
     7
100
AcDbLine
 10
136.0633094298403
 20
45.575499854626
 30
0.0
 11
136.0633094298401
 21
64.62549985462596
 31
0.0
  0
LINE
  5
15C1
330
149A
100
AcDbEntity
  8
0
  6
Continuous
 62
     7
100
AcDbLine
 10
126.5383094298402
 20
26.52649985462591
 30
0.0
 11
126.5383094298402
 21
45.57549985462588
 31
0.0
  0
LINE
  5
15C2
330
149A
100
AcDbEntity
  8
0
  6
Continuous
 62
     7
100
AcDbLine
 10
131.3013094298402
 20
83.67549988087791
 30
0.0
 11
140.8268094298402
 21
83.67499975561605
 31
0.0
  0
LINE
  5
15C3
330
149A
100
AcDbEntity
  8
0
  6
Continuous
 62
     7
100
AcDbLine
 10
131.3013094298402
 20
64.62549985462596
 30
0.0
 11
136.0633094298402
 21
64.62549985462596
 31
0.0
  0
LINE
  5
15C4
330
149A
100
AcDbEntity
  8
0
  6
Continuous
 62
     7
100
AcDbLine
 10
136.0633094298402
 20
45.57549985462588
 30
0.0
 11
126.5383094298402
 21
45.57549985462588
 31
0.0
  0
LINE
  5
15C5
330
149A
100
AcDbEntity
  8
0
  6
Continuous
 62
     7
100
AcDbLine
 10
126.5383094298402
 20
26.52649985462591
 30
0.0
 11
136.0618594298408
 21
26.52649985462591
 31
0.0
  0
CIRCLE
  5
15C6
330
149A
100
AcDbEntity
  8
0
  6
Continuous
 62
     7
100
AcDbCircle
 10
3.737329429840201
 20
125.514146054626
 30
0.0
 40
1.5
  0
CIRCLE
  5
15C7
330
149A
100
AcDbEntity
  8
0
  6
Continuous
 62
     7
100
AcDbCircle
 10
132.8638094298401
 20
125.514146054626
 30
0.0
 40
1.5
  0
CIRCLE
  5
15C8
330
149A
100
AcDbEntity
  8
0
  6
Continuous
 62
     7
100
AcDbCircle
 10
71.65135172984026
 20
125.514146054626
 30
0.0
 40
1.5
  0
CIRCLE
  5
15C9
330
149A
100
AcDbEntity
  8
0
  6
Continuous
 62
     7
100
AcDbCircle
 10
3.737329429840201
 20
3.737301054625959
 30
0.0
 40
1.5
  0
CIRCLE
  5
15CA
330
149A
100
AcDbEntity
  8
0
  6
Continuous
 62
     7
100
AcDbCircle
 10
71.65135172984026
 20
3.737301054625959
 30
0.0
 40
1.5
  0
CIRCLE
  5
15CB
330
149A
100
AcDbEntity
  8
0
  6
Continuous
 62
     7
100
AcDbCircle
 10
131.5680694405808
 20
3.737301054626072
 30
0.0
 40
1.5
  0
CIRCLE
  5
15CC
330
149A
100
AcDbEntity
  8
0
  6
Continuous
 62
     7
100
AcDbCircle
 10
3.737329429840201
 20
64.62570695462597
 30
0.0
 40
1.5
  0
LINE
  5
15CD
330
149A
100
AcDbEntity
  8
0
 62
     7
100
AcDbLine
 10
10.6000094298405
 20
120.051999854626
 30
0.0
 11
10.6000094298405
 21
119.251999854626
 31
0.0
  0
LINE
  5
15CE
330
149A
100
AcDbEntity
  8
0
 62
     7
100
AcDbLine
 10
10.6000094298405
 20
119.251999854626
 30
0.0
 11
10.00000942984059
 21
119.251999854626
 31
0.0
  0
LINE
  5
15CF
330
149A
100
AcDbEntity
  8
0
 62
     7
100
AcDbLine
 10
10.00000942984059
 20
105.2509998546258
 30
0.0
 11
10.6000094298405
 21
105.2509998546258
 31
0.0
  0
LINE
  5
15D0
330
149A
100
AcDbEntity
  8
0
 62
     7
100
AcDbLine
 10
10.6000094298405
 20
105.2509998546258
 30
0.0
 11
10.6000094298405
 21
104.4499998546259
 31
0.0
  0
LINE
  5
15D1
330
149A
100
AcDbEntity
  8
0
 62
     7
100
AcDbLine
 10
10.6000094298405
 20
104.4499998546259
 30
0.0
 11
23.40000942984023
 21
104.4499998546259
 31
0.0
  0
LINE
  5
15D2
330
149A
100
AcDbEntity
  8
0
 62
     7
100
AcDbLine
 10
23.40000942984023
 20
104.4499998546259
 30
0.0
 11
23.40000942984023
 21
105.2509998546258
 31
0.0
  0
LINE
  5
15D3
330
149A
100
AcDbEntity
  8
0
 62
     7
100
AcDbLine
 10
23.40000942984023
 20
105.2509998546258
 30
0.0
 11
24.00000942984059
 21
105.2509998546258
 31
0.0
  0
LINE
  5
15D4
330
149A
100
AcDbEntity
  8
0
 62
     7
100
AcDbLine
 10
24.00000942984059
 20
119.251999854626
 30
0.0
 11
23.40000942984023
 21
119.251999854626
 31
0.0
  0
LINE
  5
15D5
330
149A
100
AcDbEntity
  8
0
 62
     7
100
AcDbLine
 10
23.40000942984023
 20
119.251999854626
 30
0.0
 11
23.40000942984023
 21
120.051999854626
 31
0.0
  0
LINE
  5
15D6
330
149A
100
AcDbEntity
  8
0
 62
     7
100
AcDbLine
 10
10.00000942984081
 20
119.251999854626
 30
0.0
 11
10.00000942984081
 21
118.6519998546259
 31
0.0
  0
LINE
  5
15D7
330
149A
100
AcDbEntity
  8
0
 62
     7
100
AcDbLine
 10
10.00000942984081
 20
118.6519998546259
 30
0.0
 11
9.200009429841088
 21
118.6519998546259
 31
0.0
  0
LINE
  5
15D8
330
149A
100
AcDbEntity
  8
0
 62
     7
100
AcDbLine
 10
9.200009429841088
 20
118.6519998546259
 30
0.0
 11
9.200009429841088
 21
105.8519998546259
 31
0.0
  0
LINE
  5
15D9
330
149A
100
AcDbEntity
  8
0
 62
     7
100
AcDbLine
 10
9.200009429841088
 20
105.8519998546259
 30
0.0
 11
10.00000942984081
 21
105.8519998546259
 31
0.0
  0
LINE
  5
15DA
330
149A
100
AcDbEntity
  8
0
 62
     7
100
AcDbLine
 10
10.00000942984081
 20
105.8519998546259
 30
0.0
 11
10.00000942984081
 21
105.2509998546258
 31
0.0
  0
LINE
  5
15DB
330
149A
100
AcDbEntity
  8
0
 62
     7
100
AcDbLine
 10
24.00000942984082
 20
105.2509998546258
 30
0.0
 11
24.00000942984082
 21
105.8519998546259
 31
0.0
  0
LINE
  5
15DC
330
149A
100
AcDbEntity
  8
0
 62
     7
100
AcDbLine
 10
24.00000942984082
 20
105.8519998546259
 30
0.0
 11
24.80000942984054
 21
105.8519998546259
 31
0.0
  0
LINE
  5
15DD
330
149A
100
AcDbEntity
  8
0
 62
     7
100
AcDbLine
 10
24.80000942984054
 20
105.8519998546259
 30
0.0
 11
24.80000942984054
 21
118.6519998546259
 31
0.0
  0
LINE
  5
15DE
330
149A
100
AcDbEntity
  8
0
 62
     7
100
AcDbLine
 10
24.80000942984054
 20
118.6519998546259
 30
0.0
 11
24.00000942984082
 21
118.6519998546259
 31
0.0
  0
LINE
  5
15DF
330
149A
100
AcDbEntity
  8
0
 62
     7
100
AcDbLine
 10
24.00000942984082
 20
118.6519998546259
 30
0.0
 11
24.00000942984082
 21
119.251999854626
 31
0.0
  0
LINE
  5
15E0
330
149A
100
AcDbEntity
  8
0
 62
     7
100
AcDbLine
 10
61.50140942984023
 20
120.0509998546259
 30
0.0
 11
48.70230942984022
 21
120.0509998546259
 31
0.0
  0
LINE
  5
15E1
330
149A
100
AcDbEntity
  8
0
 62
     7
100
AcDbLine
 10
80.55140942984019
 20
120.0509998546259
 30
0.0
 11
67.75090942984019
 21
120.0509998546259
 31
0.0
  0
LINE
  5
15E2
330
149A
100
AcDbEntity
  8
0
 62
     7
100
AcDbLine
 10
99.6014094298402
 20
120.0509998546259
 30
0.0
 11
86.80230942984019
 21
120.0509998546259
 31
0.0
  0
LINE
  5
15E3
330
149A
100
AcDbEntity
  8
0
 62
     7
100
AcDbLine
 10
118.6518094298402
 20
120.0509998546259
 30
0.0
 11
105.8518094298402
 21
120.0509998546259
 31
0.0
  0
LINE
  5
15E4
330
149A
100
AcDbEntity
  8
0
 62
     7
100
AcDbLine
 10
137.7018094298402
 20
120.051999854626
 30
0.0
 11
124.9008094298402
 21
120.051999854626
 31
0.0
  0
LINE
  5
15E5
330
149A
100
AcDbEntity
  8
0
 62
     7
100
AcDbLine
 10
29.6514094298405
 20
120.0509998546259
 30
0.0
 11
29.6514094298405
 21
119.2509998546259
 31
0.0
  0
LINE
  5
15E6
330
149A
100
AcDbEntity
  8
0
 62
     7
100
AcDbLine
 10
29.6514094298405
 20
119.2509998546259
 30
0.0
 11
29.05140942984059
 21
119.2509998546259
 31
0.0
  0
LINE
  5
15E7
330
149A
100
AcDbEntity
  8
0
 62
     7
100
AcDbLine
 10
29.05140942984059
 20
105.2499998546257
 30
0.0
 11
29.6514094298405
 21
105.2499998546257
 31
0.0
  0
LINE
  5
15E8
330
149A
100
AcDbEntity
  8
0
 62
     7
100
AcDbLine
 10
29.6514094298405
 20
105.2499998546257
 30
0.0
 11
29.6514094298405
 21
104.4489998546258
 31
0.0
  0
LINE
  5
15E9
330
149A
100
AcDbEntity
  8
0
 62
     7
100
AcDbLine
 10
29.6514094298405
 20
104.4489998546258
 30
0.0
 11
42.45140942984022
 21
104.4489998546258
 31
0.0
  0
LINE
  5
15EA
330
149A
100
AcDbEntity
  8
0
 62
     7
100
AcDbLine
 10
42.45140942984022
 20
104.4489998546258
 30
0.0
 11
42.45140942984022
 21
105.2499998546257
 31
0.0
  0
LINE
  5
15EB
330
149A
100
AcDbEntity
  8
0
 62
     7
100
AcDbLine
 10
42.45140942984022
 20
105.2499998546257
 30
0.0
 11
43.05140942984059
 21
105.2499998546257
 31
0.0
  0
LINE
  5
15EC
330
149A
100
AcDbEntity
  8
0
 62
     7
100
AcDbLine
 10
43.05140942984059
 20
119.2509998546259
 30
0.0
 11
42.45140942984022
 21
119.2509998546259
 31
0.0
  0
LINE
  5
15ED
330
149A
100
AcDbEntity
  8
0
 62
     7
100
AcDbLine
 10
42.45140942984022
 20
119.2509998546259
 30
0.0
 11
42.45140942984022
 21
120.0509998546259
 31
0.0
  0
LINE
  5
15EE
330
149A
100
AcDbEntity
  8
0
 62
     7
100
AcDbLine
 10
29.05140942984082
 20
119.2509998546259
 30
0.0
 11
29.05140942984082
 21
118.6509998546258
 31
0.0
  0
LINE
  5
15EF
330
149A
100
AcDbEntity
  8
0
 62
     7
100
AcDbLine
 10
29.05140942984082
 20
118.6509998546258
 30
0.0
 11
28.25140942984109
 21
118.6509998546258
 31
0.0
  0
LINE
  5
15F0
330
149A
100
AcDbEntity
  8
0
 62
     7
100
AcDbLine
 10
28.25140942984109
 20
118.6509998546258
 30
0.0
 11
28.25140942984109
 21
105.8509998546258
 31
0.0
  0
LINE
  5
15F1
330
149A
100
AcDbEntity
  8
0
 62
     7
100
AcDbLine
 10
28.25140942984109
 20
105.8509998546258
 30
0.0
 11
29.05140942984082
 21
105.8509998546258
 31
0.0
  0
LINE
  5
15F2
330
149A
100
AcDbEntity
  8
0
 62
     7
100
AcDbLine
 10
29.05140942984082
 20
105.8509998546258
 30
0.0
 11
29.05140942984082
 21
105.2499998546257
 31
0.0
  0
LINE
  5
15F3
330
149A
100
AcDbEntity
  8
0
 62
     7
100
AcDbLine
 10
43.05140942984081
 20
105.2499998546257
 30
0.0
 11
43.05140942984081
 21
105.8509998546258
 31
0.0
  0
LINE
  5
15F4
330
149A
100
AcDbEntity
  8
0
 62
     7
100
AcDbLine
 10
43.05140942984081
 20
105.8509998546258
 30
0.0
 11
43.85140942984054
 21
105.8509998546258
 31
0.0
  0
LINE
  5
15F5
330
149A
100
AcDbEntity
  8
0
 62
     7
100
AcDbLine
 10
43.85140942984054
 20
105.8509998546258
 30
0.0
 11
43.85140942984054
 21
118.6509998546258
 31
0.0
  0
LINE
  5
15F6
330
149A
100
AcDbEntity
  8
0
 62
     7
100
AcDbLine
 10
43.85140942984054
 20
118.6509998546258
 30
0.0
 11
43.05140942984081
 21
118.6509998546258
 31
0.0
  0
LINE
  5
15F7
330
149A
100
AcDbEntity
  8
0
 62
     7
100
AcDbLine
 10
43.05140942984081
 20
118.6509998546258
 30
0.0
 11
43.05140942984081
 21
119.2509998546259
 31
0.0
  0
LINE
  5
15F8
330
149A
100
AcDbEntity
  8
0
 62
     7
100
AcDbLine
 10
48.7014094298405
 20
120.0509998546259
 30
0.0
 11
48.7014094298405
 21
119.2509998546259
 31
0.0
  0
LINE
  5
15F9
330
149A
100
AcDbEntity
  8
0
 62
     7
100
AcDbLine
 10
48.7014094298405
 20
119.2509998546259
 30
0.0
 11
48.1014094298406
 21
119.2509998546259
 31
0.0
  0
LINE
  5
15FA
330
149A
100
AcDbEntity
  8
0
 62
     7
100
AcDbLine
 10
48.1014094298406
 20
105.2499998546257
 30
0.0
 11
48.7014094298405
 21
105.2499998546257
 31
0.0
  0
LINE
  5
15FB
330
149A
100
AcDbEntity
  8
0
 62
     7
100
AcDbLine
 10
48.7014094298405
 20
105.2499998546257
 30
0.0
 11
48.7014094298405
 21
104.4489998546258
 31
0.0
  0
LINE
  5
15FC
330
149A
100
AcDbEntity
  8
0
 62
     7
100
AcDbLine
 10
48.7014094298405
 20
104.4489998546258
 30
0.0
 11
61.50140942984023
 21
104.4489998546258
 31
0.0
  0
LINE
  5
15FD
330
149A
100
AcDbEntity
  8
0
 62
     7
100
AcDbLine
 10
61.50140942984023
 20
104.4489998546258
 30
0.0
 11
61.50140942984023
 21
105.2499998546257
 31
0.0
  0
LINE
  5
15FE
330
149A
100
AcDbEntity
  8
0
 62
     7
100
AcDbLine
 10
61.50140942984023
 20
105.2499998546257
 30
0.0
 11
62.1014094298406
 21
105.2499998546257
 31
0.0
  0
LINE
  5
15FF
330
149A
100
AcDbEntity
  8
0
 62
     7
100
AcDbLine
 10
62.1014094298406
 20
119.2509998546259
 30
0.0
 11
61.50140942984023
 21
119.2509998546259
 31
0.0
  0
LINE
  5
1600
330
149A
100
AcDbEntity
  8
0
 62
     7
100
AcDbLine
 10
61.50140942984023
 20
119.2509998546259
 30
0.0
 11
61.50140942984023
 21
120.0509998546259
 31
0.0
  0
LINE
  5
1601
330
149A
100
AcDbEntity
  8
0
 62
     7
100
AcDbLine
 10
48.10140942984083
 20
119.2509998546259
 30
0.0
 11
48.10140942984083
 21
118.6509998546258
 31
0.0
  0
LINE
  5
1602
330
149A
100
AcDbEntity
  8
0
 62
     7
100
AcDbLine
 10
48.10140942984083
 20
118.6509998546258
 30
0.0
 11
47.30140942984109
 21
118.6509998546258
 31
0.0
  0
LINE
  5
1603
330
149A
100
AcDbEntity
  8
0
 62
     7
100
AcDbLine
 10
47.30140942984109
 20
118.6509998546258
 30
0.0
 11
47.30140942984109
 21
105.8509998546258
 31
0.0
  0
LINE
  5
1604
330
149A
100
AcDbEntity
  8
0
 62
     7
100
AcDbLine
 10
47.30140942984109
 20
105.8509998546258
 30
0.0
 11
48.10140942984083
 21
105.8509998546258
 31
0.0
  0
LINE
  5
1605
330
149A
100
AcDbEntity
  8
0
 62
     7
100
AcDbLine
 10
48.10140942984083
 20
105.8509998546258
 30
0.0
 11
48.10140942984083
 21
105.2499998546257
 31
0.0
  0
LINE
  5
1606
330
149A
100
AcDbEntity
  8
0
 62
     7
100
AcDbLine
 10
62.10140942984082
 20
105.2499998546257
 30
0.0
 11
62.10140942984082
 21
105.8509998546258
 31
0.0
  0
LINE
  5
1607
330
149A
100
AcDbEntity
  8
0
 62
     7
100
AcDbLine
 10
62.10140942984082
 20
105.8509998546258
 30
0.0
 11
62.90140942984056
 21
105.8509998546258
 31
0.0
  0
LINE
  5
1608
330
149A
100
AcDbEntity
  8
0
 62
     7
100
AcDbLine
 10
62.90140942984056
 20
105.8509998546258
 30
0.0
 11
62.90140942984056
 21
118.6509998546258
 31
0.0
  0
LINE
  5
1609
330
149A
100
AcDbEntity
  8
0
 62
     7
100
AcDbLine
 10
62.90140942984056
 20
118.6509998546258
 30
0.0
 11
62.10140942984082
 21
118.6509998546258
 31
0.0
  0
LINE
  5
160A
330
149A
100
AcDbEntity
  8
0
 62
     7
100
AcDbLine
 10
62.10140942984082
 20
118.6509998546258
 30
0.0
 11
62.10140942984082
 21
119.2509998546259
 31
0.0
  0
LINE
  5
160B
330
149A
100
AcDbEntity
  8
0
 62
     7
100
AcDbLine
 10
67.75140942984046
 20
120.0509998546259
 30
0.0
 11
67.75140942984046
 21
119.2509998546259
 31
0.0
  0
LINE
  5
160C
330
149A
100
AcDbEntity
  8
0
 62
     7
100
AcDbLine
 10
67.75140942984046
 20
119.2509998546259
 30
0.0
 11
67.15140942984056
 21
119.2509998546259
 31
0.0
  0
LINE
  5
160D
330
149A
100
AcDbEntity
  8
0
 62
     7
100
AcDbLine
 10
67.15140942984056
 20
105.2499998546257
 30
0.0
 11
67.75140942984046
 21
105.2499998546257
 31
0.0
  0
LINE
  5
160E
330
149A
100
AcDbEntity
  8
0
 62
     7
100
AcDbLine
 10
67.75140942984046
 20
105.2499998546257
 30
0.0
 11
67.75140942984046
 21
104.4489998546258
 31
0.0
  0
LINE
  5
160F
330
149A
100
AcDbEntity
  8
0
 62
     7
100
AcDbLine
 10
67.75140942984046
 20
104.4489998546258
 30
0.0
 11
80.55140942984019
 21
104.4489998546258
 31
0.0
  0
LINE
  5
1610
330
149A
100
AcDbEntity
  8
0
 62
     7
100
AcDbLine
 10
80.55140942984019
 20
104.4489998546258
 30
0.0
 11
80.55140942984019
 21
105.2499998546257
 31
0.0
  0
LINE
  5
1611
330
149A
100
AcDbEntity
  8
0
 62
     7
100
AcDbLine
 10
80.55140942984019
 20
105.2499998546257
 30
0.0
 11
81.15140942984055
 21
105.2499998546257
 31
0.0
  0
LINE
  5
1612
330
149A
100
AcDbEntity
  8
0
 62
     7
100
AcDbLine
 10
81.15140942984055
 20
119.2509998546259
 30
0.0
 11
80.55140942984019
 21
119.2509998546259
 31
0.0
  0
LINE
  5
1613
330
149A
100
AcDbEntity
  8
0
 62
     7
100
AcDbLine
 10
80.55140942984019
 20
119.2509998546259
 30
0.0
 11
80.55140942984019
 21
120.0509998546259
 31
0.0
  0
LINE
  5
1614
330
149A
100
AcDbEntity
  8
0
 62
     7
100
AcDbLine
 10
67.15140942984078
 20
119.2509998546259
 30
0.0
 11
67.15140942984078
 21
118.6509998546258
 31
0.0
  0
LINE
  5
1615
330
149A
100
AcDbEntity
  8
0
 62
     7
100
AcDbLine
 10
67.15140942984078
 20
118.6509998546258
 30
0.0
 11
66.35140942984105
 21
118.6509998546258
 31
0.0
  0
LINE
  5
1616
330
149A
100
AcDbEntity
  8
0
 62
     7
100
AcDbLine
 10
66.35140942984105
 20
118.6509998546258
 30
0.0
 11
66.35140942984105
 21
105.8509998546258
 31
0.0
  0
LINE
  5
1617
330
149A
100
AcDbEntity
  8
0
 62
     7
100
AcDbLine
 10
66.35140942984105
 20
105.8509998546258
 30
0.0
 11
67.15140942984078
 21
105.8509998546258
 31
0.0
  0
LINE
  5
1618
330
149A
100
AcDbEntity
  8
0
 62
     7
100
AcDbLine
 10
67.15140942984078
 20
105.8509998546258
 30
0.0
 11
67.15140942984078
 21
105.2499998546257
 31
0.0
  0
LINE
  5
1619
330
149A
100
AcDbEntity
  8
0
 62
     7
100
AcDbLine
 10
81.15140942984078
 20
105.2499998546257
 30
0.0
 11
81.15140942984078
 21
105.8509998546258
 31
0.0
  0
LINE
  5
161A
330
149A
100
AcDbEntity
  8
0
 62
     7
100
AcDbLine
 10
81.15140942984078
 20
105.8509998546258
 30
0.0
 11
81.95140942984052
 21
105.8509998546258
 31
0.0
  0
LINE
  5
161B
330
149A
100
AcDbEntity
  8
0
 62
     7
100
AcDbLine
 10
81.95140942984052
 20
105.8509998546258
 30
0.0
 11
81.95140942984052
 21
118.6509998546258
 31
0.0
  0
LINE
  5
161C
330
149A
100
AcDbEntity
  8
0
 62
     7
100
AcDbLine
 10
81.95140942984052
 20
118.6509998546258
 30
0.0
 11
81.15140942984078
 21
118.6509998546258
 31
0.0
  0
LINE
  5
161D
330
149A
100
AcDbEntity
  8
0
 62
     7
100
AcDbLine
 10
81.15140942984078
 20
118.6509998546258
 30
0.0
 11
81.15140942984078
 21
119.2509998546259
 31
0.0
  0
LINE
  5
161E
330
149A
100
AcDbEntity
  8
0
 62
     7
100
AcDbLine
 10
86.80140942984047
 20
120.0509998546259
 30
0.0
 11
86.80140942984047
 21
119.2509998546259
 31
0.0
  0
LINE
  5
161F
330
149A
100
AcDbEntity
  8
0
 62
     7
100
AcDbLine
 10
86.80140942984047
 20
119.2509998546259
 30
0.0
 11
86.20140942984056
 21
119.2509998546259
 31
0.0
  0
LINE
  5
1620
330
149A
100
AcDbEntity
  8
0
 62
     7
100
AcDbLine
 10
86.20140942984056
 20
105.2499998546257
 30
0.0
 11
86.80140942984047
 21
105.2499998546257
 31
0.0
  0
LINE
  5
1621
330
149A
100
AcDbEntity
  8
0
 62
     7
100
AcDbLine
 10
86.80140942984047
 20
105.2499998546257
 30
0.0
 11
86.80140942984047
 21
104.4489998546258
 31
0.0
  0
LINE
  5
1622
330
149A
100
AcDbEntity
  8
0
 62
     7
100
AcDbLine
 10
86.80140942984047
 20
104.4489998546258
 30
0.0
 11
99.6014094298402
 21
104.4489998546258
 31
0.0
  0
LINE
  5
1623
330
149A
100
AcDbEntity
  8
0
 62
     7
100
AcDbLine
 10
99.6014094298402
 20
104.4489998546258
 30
0.0
 11
99.6014094298402
 21
105.2499998546257
 31
0.0
  0
LINE
  5
1624
330
149A
100
AcDbEntity
  8
0
 62
     7
100
AcDbLine
 10
99.6014094298402
 20
105.2499998546257
 30
0.0
 11
100.2014094298405
 21
105.2499998546257
 31
0.0
  0
LINE
  5
1625
330
149A
100
AcDbEntity
  8
0
 62
     7
100
AcDbLine
 10
100.2014094298405
 20
119.2509998546259
 30
0.0
 11
99.6014094298402
 21
119.2509998546259
 31
0.0
  0
LINE
  5
1626
330
149A
100
AcDbEntity
  8
0
 62
     7
100
AcDbLine
 10
99.6014094298402
 20
119.2509998546259
 30
0.0
 11
99.6014094298402
 21
120.0509998546259
 31
0.0
  0
LINE
  5
1627
330
149A
100
AcDbEntity
  8
0
 62
     7
100
AcDbLine
 10
86.20140942984079
 20
119.2509998546259
 30
0.0
 11
86.20140942984079
 21
118.6509998546258
 31
0.0
  0
LINE
  5
1628
330
149A
100
AcDbEntity
  8
0
 62
     7
100
AcDbLine
 10
86.20140942984079
 20
118.6509998546258
 30
0.0
 11
85.40140942984107
 21
118.6509998546258
 31
0.0
  0
LINE
  5
1629
330
149A
100
AcDbEntity
  8
0
 62
     7
100
AcDbLine
 10
85.40140942984107
 20
118.6509998546258
 30
0.0
 11
85.40140942984107
 21
105.8509998546258
 31
0.0
  0
LINE
  5
162A
330
149A
100
AcDbEntity
  8
0
 62
     7
100
AcDbLine
 10
85.40140942984107
 20
105.8509998546258
 30
0.0
 11
86.20140942984079
 21
105.8509998546258
 31
0.0
  0
LINE
  5
162B
330
149A
100
AcDbEntity
  8
0
 62
     7
100
AcDbLine
 10
86.20140942984079
 20
105.8509998546258
 30
0.0
 11
86.20140942984079
 21
105.2499998546257
 31
0.0
  0
LINE
  5
162C
330
149A
100
AcDbEntity
  8
0
 62
     7
100
AcDbLine
 10
100.2014094298408
 20
105.2499998546257
 30
0.0
 11
100.2014094298408
 21
105.8509998546258
 31
0.0
  0
LINE
  5
162D
330
149A
100
AcDbEntity
  8
0
 62
     7
100
AcDbLine
 10
100.2014094298408
 20
105.8509998546258
 30
0.0
 11
101.0014094298405
 21
105.8509998546258
 31
0.0
  0
LINE
  5
162E
330
149A
100
AcDbEntity
  8
0
 62
     7
100
AcDbLine
 10
101.0014094298405
 20
105.8509998546258
 30
0.0
 11
101.0014094298405
 21
118.6509998546258
 31
0.0
  0
LINE
  5
162F
330
149A
100
AcDbEntity
  8
0
 62
     7
100
AcDbLine
 10
101.0014094298405
 20
118.6509998546258
 30
0.0
 11
100.2014094298408
 21
118.6509998546258
 31
0.0
  0
LINE
  5
1630
330
149A
100
AcDbEntity
  8
0
 62
     7
100
AcDbLine
 10
100.2014094298408
 20
118.6509998546258
 30
0.0
 11
100.2014094298408
 21
119.2509998546259
 31
0.0
  0
LINE
  5
1631
330
149A
100
AcDbEntity
  8
0
 62
     7
100
AcDbLine
 10
105.8518094298405
 20
120.0509998546259
 30
0.0
 11
105.8518094298405
 21
119.2509998546259
 31
0.0
  0
LINE
  5
1632
330
149A
100
AcDbEntity
  8
0
 62
     7
100
AcDbLine
 10
105.8518094298405
 20
119.2509998546259
 30
0.0
 11
105.2518094298406
 21
119.2509998546259
 31
0.0
  0
LINE
  5
1633
330
149A
100
AcDbEntity
  8
0
 62
     7
100
AcDbLine
 10
105.2518094298406
 20
105.2499998546257
 30
0.0
 11
105.8518094298405
 21
105.2499998546257
 31
0.0
  0
LINE
  5
1634
330
149A
100
AcDbEntity
  8
0
 62
     7
100
AcDbLine
 10
105.8518094298405
 20
105.2499998546257
 30
0.0
 11
105.8518094298405
 21
104.4489998546258
 31
0.0
  0
LINE
  5
1635
330
149A
100
AcDbEntity
  8
0
 62
     7
100
AcDbLine
 10
105.8518094298405
 20
104.4489998546258
 30
0.0
 11
118.6518094298402
 21
104.4489998546258
 31
0.0
  0
LINE
  5
1636
330
149A
100
AcDbEntity
  8
0
 62
     7
100
AcDbLine
 10
118.6518094298402
 20
104.4489998546258
 30
0.0
 11
118.6518094298402
 21
105.2499998546257
 31
0.0
  0
LINE
  5
1637
330
149A
100
AcDbEntity
  8
0
 62
     7
100
AcDbLine
 10
118.6518094298402
 20
105.2499998546257
 30
0.0
 11
119.2518094298406
 21
105.2499998546257
 31
0.0
  0
LINE
  5
1638
330
149A
100
AcDbEntity
  8
0
 62
     7
100
AcDbLine
 10
119.2518094298406
 20
119.2509998546259
 30
0.0
 11
118.6518094298402
 21
119.2509998546259
 31
0.0
  0
LINE
  5
1639
330
149A
100
AcDbEntity
  8
0
 62
     7
100
AcDbLine
 10
118.6518094298402
 20
119.2509998546259
 30
0.0
 11
118.6518094298402
 21
120.0509998546259
 31
0.0
  0
LINE
  5
163A
330
149A
100
AcDbEntity
  8
0
 62
     7
100
AcDbLine
 10
105.2518094298408
 20
119.2509998546259
 30
0.0
 11
105.2518094298408
 21
118.6509998546258
 31
0.0
  0
LINE
  5
163B
330
149A
100
AcDbEntity
  8
0
 62
     7
100
AcDbLine
 10
105.2518094298408
 20
118.6509998546258
 30
0.0
 11
104.4518094298411
 21
118.6509998546258
 31
0.0
  0
LINE
  5
163C
330
149A
100
AcDbEntity
  8
0
 62
     7
100
AcDbLine
 10
104.4518094298411
 20
118.6509998546258
 30
0.0
 11
104.4518094298411
 21
105.8509998546258
 31
0.0
  0
LINE
  5
163D
330
149A
100
AcDbEntity
  8
0
 62
     7
100
AcDbLine
 10
104.4518094298411
 20
105.8509998546258
 30
0.0
 11
105.2518094298408
 21
105.8509998546258
 31
0.0
  0
LINE
  5
163E
330
149A
100
AcDbEntity
  8
0
 62
     7
100
AcDbLine
 10
105.2518094298408
 20
105.8509998546258
 30
0.0
 11
105.2518094298408
 21
105.2499998546257
 31
0.0
  0
LINE
  5
163F
330
149A
100
AcDbEntity
  8
0
 62
     7
100
AcDbLine
 10
119.2518094298408
 20
105.2499998546257
 30
0.0
 11
119.2518094298408
 21
105.8509998546258
 31
0.0
  0
LINE
  5
1640
330
149A
100
AcDbEntity
  8
0
 62
     7
100
AcDbLine
 10
119.2518094298408
 20
105.8509998546258
 30
0.0
 11
120.0518094298405
 21
105.8509998546258
 31
0.0
  0
LINE
  5
1641
330
149A
100
AcDbEntity
  8
0
 62
     7
100
AcDbLine
 10
120.0518094298405
 20
105.8509998546258
 30
0.0
 11
120.0518094298405
 21
118.6509998546258
 31
0.0
  0
LINE
  5
1642
330
149A
100
AcDbEntity
  8
0
 62
     7
100
AcDbLine
 10
120.0518094298405
 20
118.6509998546258
 30
0.0
 11
119.2518094298408
 21
118.6509998546258
 31
0.0
  0
LINE
  5
1643
330
149A
100
AcDbEntity
  8
0
 62
     7
100
AcDbLine
 10
119.2518094298408
 20
118.6509998546258
 30
0.0
 11
119.2518094298408
 21
119.2509998546259
 31
0.0
  0
LINE
  5
1644
330
149A
100
AcDbEntity
  8
0
 62
     7
100
AcDbLine
 10
124.9018094298405
 20
120.051999854626
 30
0.0
 11
124.9018094298405
 21
119.251999854626
 31
0.0
  0
LINE
  5
1645
330
149A
100
AcDbEntity
  8
0
 62
     7
100
AcDbLine
 10
124.9018094298405
 20
119.251999854626
 30
0.0
 11
124.3018094298406
 21
119.251999854626
 31
0.0
  0
LINE
  5
1646
330
149A
100
AcDbEntity
  8
0
 62
     7
100
AcDbLine
 10
124.3018094298406
 20
105.2509998546258
 30
0.0
 11
124.9018094298405
 21
105.2509998546258
 31
0.0
  0
LINE
  5
1647
330
149A
100
AcDbEntity
  8
0
 62
     7
100
AcDbLine
 10
124.9018094298405
 20
105.2509998546258
 30
0.0
 11
124.9018094298405
 21
104.4499998546259
 31
0.0
  0
LINE
  5
1648
330
149A
100
AcDbEntity
  8
0
 62
     7
100
AcDbLine
 10
124.9018094298405
 20
104.4499998546259
 30
0.0
 11
137.7018094298402
 21
104.4499998546259
 31
0.0
  0
LINE
  5
1649
330
149A
100
AcDbEntity
  8
0
 62
     7
100
AcDbLine
 10
137.7018094298402
 20
104.4499998546259
 30
0.0
 11
137.7018094298402
 21
105.2509998546258
 31
0.0
  0
LINE
  5
164A
330
149A
100
AcDbEntity
  8
0
 62
     7
100
AcDbLine
 10
137.7018094298402
 20
105.2509998546258
 30
0.0
 11
138.3018094298406
 21
105.2509998546258
 31
0.0
  0
LINE
  5
164B
330
149A
100
AcDbEntity
  8
0
 62
     7
100
AcDbLine
 10
138.3018094298406
 20
119.251999854626
 30
0.0
 11
137.7018094298402
 21
119.251999854626
 31
0.0
  0
LINE
  5
164C
330
149A
100
AcDbEntity
  8
0
 62
     7
100
AcDbLine
 10
137.7018094298402
 20
119.251999854626
 30
0.0
 11
137.7018094298402
 21
120.051999854626
 31
0.0
  0
LINE
  5
164D
330
149A
100
AcDbEntity
  8
0
 62
     7
100
AcDbLine
 10
124.3018094298408
 20
119.251999854626
 30
0.0
 11
124.3018094298408
 21
118.6519998546259
 31
0.0
  0
LINE
  5
164E
330
149A
100
AcDbEntity
  8
0
 62
     7
100
AcDbLine
 10
124.3018094298408
 20
118.6519998546259
 30
0.0
 11
123.5018094298411
 21
118.6519998546259
 31
0.0
  0
LINE
  5
164F
330
149A
100
AcDbEntity
  8
0
 62
     7
100
AcDbLine
 10
123.5018094298411
 20
118.6519998546259
 30
0.0
 11
123.5018094298411
 21
105.8519998546259
 31
0.0
  0
LINE
  5
1650
330
149A
100
AcDbEntity
  8
0
 62
     7
100
AcDbLine
 10
123.5018094298411
 20
105.8519998546259
 30
0.0
 11
124.3018094298408
 21
105.8519998546259
 31
0.0
  0
LINE
  5
1651
330
149A
100
AcDbEntity
  8
0
 62
     7
100
AcDbLine
 10
124.3018094298408
 20
105.8519998546259
 30
0.0
 11
124.3018094298408
 21
105.2509998546258
 31
0.0
  0
LINE
  5
1652
330
149A
100
AcDbEntity
  8
0
 62
     7
100
AcDbLine
 10
138.3018094298408
 20
105.2509998546258
 30
0.0
 11
138.3018094298408
 21
105.8519998546259
 31
0.0
  0
LINE
  5
1653
330
149A
100
AcDbEntity
  8
0
 62
     7
100
AcDbLine
 10
138.3018094298408
 20
105.8519998546259
 30
0.0
 11
139.1018094298405
 21
105.8519998546259
 31
0.0
  0
LINE
  5
1654
330
149A
100
AcDbEntity
  8
0
 62
     7
100
AcDbLine
 10
139.1018094298405
 20
105.8519998546259
 30
0.0
 11
139.1018094298405
 21
118.6519998546259
 31
0.0
  0
LINE
  5
1655
330
149A
100
AcDbEntity
  8
0
 62
     7
100
AcDbLine
 10
139.1018094298405
 20
118.6519998546259
 30
0.0
 11
138.3018094298408
 21
118.6519998546259
 31
0.0
  0
LINE
  5
1656
330
149A
100
AcDbEntity
  8
0
 62
     7
100
AcDbLine
 10
138.3018094298408
 20
118.6519998546259
 30
0.0
 11
138.3018094298408
 21
119.251999854626
 31
0.0
  0
LINE
  5
1657
330
149A
100
AcDbEntity
  8
0
 62
     7
100
AcDbLine
 10
12.38280942984062
 20
62.10299985462592
 30
0.0
 11
12.38280942984062
 21
61.50219985462587
 31
0.0
  0
LINE
  5
1658
330
149A
100
AcDbEntity
  8
0
 62
     7
100
AcDbLine
 10
12.38280942984062
 20
61.50219985462587
 30
0.0
 11
11.58180942984057
 21
61.50219985462587
 31
0.0
  0
LINE
  5
1659
330
149A
100
AcDbEntity
  8
0
 62
     7
100
AcDbLine
 10
11.58180942984057
 20
61.50219985462587
 30
0.0
 11
11.58180942984057
 21
48.70309985462592
 31
0.0
  0
LINE
  5
165A
330
149A
100
AcDbEntity
  8
0
 62
     7
100
AcDbLine
 10
11.58180942984057
 20
48.70309985462592
 30
0.0
 11
12.38280942984062
 21
48.70309985462592
 31
0.0
  0
LINE
  5
165B
330
149A
100
AcDbEntity
  8
0
 62
     7
100
AcDbLine
 10
12.38280942984062
 20
48.70309985462592
 30
0.0
 11
12.38280942984062
 21
48.10229985462587
 31
0.0
  0
LINE
  5
165C
330
149A
100
AcDbEntity
  8
0
  6
Continuous
 62
     7
100
AcDbLine
 10
12.38280942984062
 20
62.10299985462592
 30
0.0
 11
31.14460942984022
 21
62.09999985462599
 31
0.0
  0
LINE
  5
165D
330
149A
100
AcDbEntity
  8
0
  6
Continuous
 62
     7
100
AcDbLine
 10
12.38280942984062
 20
48.10229985462587
 30
0.0
 11
31.14460942984022
 21
48.10099985462596
 31
0.0
  0
LINE
  5
165E
330
149A
100
AcDbEntity
  8
0
  6
Continuous
 62
     7
100
AcDbLine
 10
140.8268094298402
 20
129.251999854626
 30
0.0
 11
-0.0000005701597843
 21
129.251999854626
 31
0.0
  0
LINE
  5
165F
330
149A
100
AcDbEntity
  8
0
  6
Continuous
 62
     7
100
AcDbLine
 10
-0.0000005701597843
 20
-0.000000145374031
 30
0.0
 11
136.0618594298408
 21
-0.000000145374031
 31
0.0
  0
LINE
  5
1660
330
149A
100
AcDbEntity
  8
0
  6
Continuous
 62
     7
100
AcDbLine
 10
-0.0000005701597843
 20
129.251999854626
 30
0.0
 11
-0.0000005701597843
 21
-0.0000001453740879
 31
0.0
  0
LINE
  5
1661
330
149A
100
AcDbEntity
  8
0
 62
     7
100
AcDbLine
 10
28.76205942984319
 20
10.0035598546259
 30
0.0
 11
28.76205942984319
 21
10.60300985462592
 31
0.0
  0
LINE
  5
1662
330
149A
100
AcDbEntity
  8
0
 62
     7
100
AcDbLine
 10
28.76205942984319
 20
10.60300985462592
 30
0.0
 11
29.56265942984316
 21
10.60300985462592
 31
0.0
  0
LINE
  5
1663
330
149A
100
AcDbEntity
  8
0
 62
     7
100
AcDbLine
 10
29.56265942984316
 20
10.60300985462592
 30
0.0
 11
29.56265942984316
 21
23.40359985462592
 31
0.0
  0
LINE
  5
1664
330
149A
100
AcDbEntity
  8
0
 62
     7
100
AcDbLine
 10
29.56265942984316
 20
23.40359985462592
 30
0.0
 11
28.76205942984319
 21
23.40359985462592
 31
0.0
  0
LINE
  5
1665
330
149A
100
AcDbEntity
  8
0
 62
     7
100
AcDbLine
 10
28.76205942984319
 20
23.40359985462592
 30
0.0
 11
28.76205942984319
 21
24.0030998546259
 31
0.0
  0
LINE
  5
1666
330
149A
100
AcDbEntity
  8
0
 62
     7
100
AcDbLine
 10
57.62505942984086
 20
24.0030998546259
 30
0.0
 11
57.62505942984086
 21
23.40359985462592
 31
0.0
  0
LINE
  5
1667
330
149A
100
AcDbEntity
  8
0
 62
     7
100
AcDbLine
 10
57.62505942984086
 20
23.40359985462592
 30
0.0
 11
56.82565942984081
 21
23.40359985462592
 31
0.0
  0
LINE
  5
1668
330
149A
100
AcDbEntity
  8
0
 62
     7
100
AcDbLine
 10
56.82565942984081
 20
23.40359985462592
 30
0.0
 11
56.82565942984081
 21
10.60300985462592
 31
0.0
  0
LINE
  5
1669
330
149A
100
AcDbEntity
  8
0
 62
     7
100
AcDbLine
 10
12.38126942984115
 20
24.00309985462588
 30
0.0
 11
12.38126942984115
 21
23.40219985462588
 31
0.0
  0
LINE
  5
166A
330
149A
100
AcDbEntity
  8
0
 62
     7
100
AcDbLine
 10
12.38126942984115
 20
23.40219985462588
 30
0.0
 11
11.5806394298412
 21
23.40219985462588
 31
0.0
  0
LINE
  5
166B
330
149A
100
AcDbEntity
  8
0
 62
     7
100
AcDbLine
 10
11.5806394298412
 20
23.40219985462588
 30
0.0
 11
11.5806394298412
 21
10.60159985462587
 31
0.0
  0
LINE
  5
166C
330
149A
100
AcDbEntity
  8
0
 62
     7
100
AcDbLine
 10
11.5806394298412
 20
10.60159985462587
 30
0.0
 11
12.38126942984115
 21
10.60159985462587
 31
0.0
  0
LINE
  5
166D
330
149A
100
AcDbEntity
  8
0
 62
     7
100
AcDbLine
 10
12.38126942984115
 20
10.60159985462587
 30
0.0
 11
12.38126942984115
 21
10.00219985462587
 31
0.0
  0
LINE
  5
166E
330
149A
100
AcDbEntity
  8
0
 62
     7
100
AcDbLine
 10
50.1931594298411
 20
10.0021998546259
 30
0.0
 11
50.1931594298411
 21
10.6015998546259
 31
0.0
  0
LINE
  5
166F
330
149A
100
AcDbEntity
  8
0
 62
     7
100
AcDbLine
 10
50.1931594298411
 20
10.6015998546259
 30
0.0
 11
50.99255942984115
 21
10.6015998546259
 31
0.0
  0
LINE
  5
1670
330
149A
100
AcDbEntity
  8
0
 62
     7
100
AcDbLine
 10
50.99255942984115
 20
10.6015998546259
 30
0.0
 11
50.99255942984115
 21
23.4021998546259
 31
0.0
  0
LINE
  5
1671
330
149A
100
AcDbEntity
  8
0
 62
     7
100
AcDbLine
 10
50.99255942984115
 20
23.4021998546259
 30
0.0
 11
50.1931594298411
 21
23.4021998546259
 31
0.0
  0
LINE
  5
1672
330
149A
100
AcDbEntity
  8
0
 62
     7
100
AcDbLine
 10
50.1931594298411
 20
23.4021998546259
 30
0.0
 11
50.1931594298411
 21
24.0030998546259
 31
0.0
  0
LINE
  5
1673
330
149A
100
AcDbEntity
  8
0
 62
     7
100
AcDbLine
 10
74.00565942984099
 20
10.0021998546259
 30
0.0
 11
74.00565942984099
 21
10.6015998546259
 31
0.0
  0
LINE
  5
1674
330
149A
100
AcDbEntity
  8
0
 62
     7
100
AcDbLine
 10
74.00565942984099
 20
10.6015998546259
 30
0.0
 11
74.80645942984103
 21
10.6015998546259
 31
0.0
  0
LINE
  5
1675
330
149A
100
AcDbEntity
  8
0
 62
     7
100
AcDbLine
 10
74.80645942984103
 20
10.6015998546259
 30
0.0
 11
74.80645942984103
 21
23.4021998546259
 31
0.0
  0
LINE
  5
1676
330
149A
100
AcDbEntity
  8
0
 62
     7
100
AcDbLine
 10
74.80645942984103
 20
23.4021998546259
 30
0.0
 11
74.00565942984099
 21
23.4021998546259
 31
0.0
  0
LINE
  5
1677
330
149A
100
AcDbEntity
  8
0
 62
     7
100
AcDbLine
 10
74.00565942984099
 20
23.4021998546259
 30
0.0
 11
74.00565942984099
 21
24.0030998546259
 31
0.0
  0
LINE
  5
1678
330
149A
100
AcDbEntity
  8
0
 62
     7
100
AcDbLine
 10
84.41255942984083
 20
23.45309985462589
 30
0.0
 11
87.71175942984086
 21
23.45309985462589
 31
0.0
  0
LINE
  5
1679
330
149A
100
AcDbEntity
  8
0
 62
     7
100
AcDbLine
 10
87.71175942984086
 20
23.45309985462589
 30
0.0
 11
87.71175942984086
 21
9.252399854625906
 31
0.0
  0
LINE
  5
167A
330
149A
100
AcDbEntity
  8
0
 62
     7
100
AcDbLine
 10
87.71175942984086
 20
9.252399854625906
 30
0.0
 11
84.41255942984083
 21
9.252399854625906
 31
0.0
  0
LINE
  5
167B
330
149A
100
AcDbEntity
  8
0
 62
     7
100
AcDbLine
 10
84.41255942984083
 20
9.252399854625906
 30
0.0
 11
84.41255942984083
 21
23.45309985462589
 31
0.0
  0
LINE
  5
167C
330
149A
100
AcDbEntity
  8
0
 62
     7
100
AcDbLine
 10
108.2123594298408
 20
23.45309985462589
 30
0.0
 11
111.5123594298408
 21
23.45309985462589
 31
0.0
  0
LINE
  5
167D
330
149A
100
AcDbEntity
  8
0
 62
     7
100
AcDbLine
 10
111.5123594298408
 20
23.45309985462589
 30
0.0
 11
111.5123594298408
 21
9.252399854625906
 31
0.0
  0
LINE
  5
167E
330
149A
100
AcDbEntity
  8
0
 62
     7
100
AcDbLine
 10
111.5123594298408
 20
9.252399854625906
 30
0.0
 11
108.2123594298408
 21
9.252399854625906
 31
0.0
  0
LINE
  5
167F
330
149A
100
AcDbEntity
  8
0
 62
     7
100
AcDbLine
 10
108.2123594298408
 20
9.252399854625906
 30
0.0
 11
108.2123594298408
 21
23.45309985462589
 31
0.0
  0
LINE
  5
1680
330
149A
100
AcDbEntity
  8
0
 62
     7
100
AcDbLine
 10
33.81255942984086
 20
24.0030998546259
 30
0.0
 11
33.81255942984086
 21
23.40229985462591
 31
0.0
  0
LINE
  5
1681
330
149A
100
AcDbEntity
  8
0
 62
     7
100
AcDbLine
 10
33.81255942984086
 20
23.40229985462591
 30
0.0
 11
33.01185942984086
 21
23.40229985462591
 31
0.0
  0
LINE
  5
1682
330
149A
100
AcDbEntity
  8
0
 62
     7
100
AcDbLine
 10
33.01185942984086
 20
23.40229985462591
 30
0.0
 11
33.01185942984086
 21
10.6016998546259
 31
0.0
  0
LINE
  5
1683
330
149A
100
AcDbEntity
  8
0
 62
     7
100
AcDbLine
 10
33.01185942984086
 20
10.6016998546259
 30
0.0
 11
33.81255942984086
 21
10.6016998546259
 31
0.0
  0
LINE
  5
1684
330
149A
100
AcDbEntity
  8
0
 62
     7
100
AcDbLine
 10
33.81255942984086
 20
10.6016998546259
 30
0.0
 11
33.81255942984086
 21
10.00199985462589
 31
0.0
  0
LINE
  5
1685
330
149A
100
AcDbEntity
  8
0
 62
     7
100
AcDbLine
 10
57.62505942984086
 20
24.0030998546259
 30
0.0
 11
57.62505942984086
 21
23.40229985462591
 31
0.0
  0
LINE
  5
1686
330
149A
100
AcDbEntity
  8
0
 62
     7
100
AcDbLine
 10
57.62505942984086
 20
23.40229985462591
 30
0.0
 11
56.82565942984081
 21
23.40229985462591
 31
0.0
  0
LINE
  5
1687
330
149A
100
AcDbEntity
  8
0
 62
     7
100
AcDbLine
 10
56.82565942984081
 20
23.40229985462591
 30
0.0
 11
56.82565942984081
 21
10.6016998546259
 31
0.0
  0
LINE
  5
1688
330
149A
100
AcDbEntity
  8
0
 62
     7
100
AcDbLine
 10
56.82565942984081
 20
10.6016998546259
 30
0.0
 11
57.62505942984086
 21
10.6016998546259
 31
0.0
  0
LINE
  5
1689
330
149A
100
AcDbEntity
  8
0
 62
     7
100
AcDbLine
 10
57.62505942984086
 20
10.6016998546259
 30
0.0
 11
57.62505942984086
 21
10.00199985462589
 31
0.0
  0
LINE
  5
168A
330
149A
100
AcDbEntity
  8
0
 62
     7
100
AcDbLine
 10
90.96255942984084
 20
24.0030998546259
 30
0.0
 11
90.96255942984084
 21
23.40229985462591
 31
0.0
  0
LINE
  5
168B
330
149A
100
AcDbEntity
  8
0
 62
     7
100
AcDbLine
 10
90.96255942984084
 20
23.40229985462591
 30
0.0
 11
90.16175942984085
 21
23.40229985462591
 31
0.0
  0
LINE
  5
168C
330
149A
100
AcDbEntity
  8
0
 62
     7
100
AcDbLine
 10
90.16175942984085
 20
23.40229985462591
 30
0.0
 11
90.16175942984085
 21
10.6016998546259
 31
0.0
  0
LINE
  5
168D
330
149A
100
AcDbEntity
  8
0
 62
     7
100
AcDbLine
 10
90.16175942984085
 20
10.6016998546259
 30
0.0
 11
90.96255942984084
 21
10.6016998546259
 31
0.0
  0
LINE
  5
168E
330
149A
100
AcDbEntity
  8
0
 62
     7
100
AcDbLine
 10
90.96255942984084
 20
10.6016998546259
 30
0.0
 11
90.96255942984084
 21
10.00199985462589
 31
0.0
  0
LINE
  5
168F
330
149A
100
AcDbEntity
  8
0
 62
     7
100
AcDbLine
 10
90.96255942984084
 20
10.00199985462589
 30
0.0
 11
104.9618594298408
 21
10.00199985462589
 31
0.0
  0
LINE
  5
1690
330
149A
100
AcDbEntity
  8
0
 62
     7
100
AcDbLine
 10
104.9618594298408
 20
10.00199985462589
 30
0.0
 11
104.9618594298408
 21
10.6016998546259
 31
0.0
  0
LINE
  5
1691
330
149A
100
AcDbEntity
  8
0
 62
     7
100
AcDbLine
 10
104.9618594298408
 20
10.6016998546259
 30
0.0
 11
105.7626594298408
 21
10.6016998546259
 31
0.0
  0
LINE
  5
1692
330
149A
100
AcDbEntity
  8
0
 62
     7
100
AcDbLine
 10
105.7626594298408
 20
10.6016998546259
 30
0.0
 11
105.7626594298408
 21
23.40229985462591
 31
0.0
  0
LINE
  5
1693
330
149A
100
AcDbEntity
  8
0
 62
     7
100
AcDbLine
 10
105.7626594298408
 20
23.40229985462591
 30
0.0
 11
104.9618594298408
 21
23.40229985462591
 31
0.0
  0
LINE
  5
1694
330
149A
100
AcDbEntity
  8
0
 62
     7
100
AcDbLine
 10
104.9618594298408
 20
23.40229985462591
 30
0.0
 11
104.9618594298408
 21
24.0030998546259
 31
0.0
  0
LINE
  5
1695
330
149A
100
AcDbEntity
  8
0
 62
     7
100
AcDbLine
 10
104.9618594298408
 20
24.0030998546259
 30
0.0
 11
90.96255942984084
 21
24.0030998546259
 31
0.0
  0
LINE
  5
1696
330
149A
100
AcDbEntity
  8
0
 62
     7
100
AcDbLine
 10
119.5373594298408
 20
24.0030998546259
 30
0.0
 11
119.5373594298408
 21
23.40229985462591
 31
0.0
  0
LINE
  5
1697
330
149A
100
AcDbEntity
  8
0
 62
     7
100
AcDbLine
 10
119.5373594298408
 20
23.40229985462591
 30
0.0
 11
118.7363594298408
 21
23.40229985462591
 31
0.0
  0
LINE
  5
1698
330
149A
100
AcDbEntity
  8
0
 62
     7
100
AcDbLine
 10
118.7363594298408
 20
23.40229985462591
 30
0.0
 11
118.7363594298408
 21
10.6016998546259
 31
0.0
  0
LINE
  5
1699
330
149A
100
AcDbEntity
  8
0
 62
     7
100
AcDbLine
 10
118.7363594298408
 20
10.6016998546259
 30
0.0
 11
119.5373594298408
 21
10.6016998546259
 31
0.0
  0
LINE
  5
169A
330
149A
100
AcDbEntity
  8
0
 62
     7
100
AcDbLine
 10
119.5373594298408
 20
10.6016998546259
 30
0.0
 11
119.5373594298408
 21
10.00199985462589
 31
0.0
  0
LINE
  5
169B
330
149A
100
AcDbEntity
  8
0
 62
     7
100
AcDbLine
 10
119.5373594298408
 20
10.00199985462589
 30
0.0
 11
133.5373594298409
 21
10.00199985462589
 31
0.0
  0
LINE
  5
169C
330
149A
100
AcDbEntity
  8
0
 62
     7
100
AcDbLine
 10
133.5373594298409
 20
10.00199985462589
 30
0.0
 11
133.5373594298409
 21
10.6016998546259
 31
0.0
  0
LINE
  5
169D
330
149A
100
AcDbEntity
  8
0
 62
     7
100
AcDbLine
 10
133.5373594298409
 20
10.6016998546259
 30
0.0
 11
134.3373594298408
 21
10.6016998546259
 31
0.0
  0
LINE
  5
169E
330
149A
100
AcDbEntity
  8
0
 62
     7
100
AcDbLine
 10
134.3373594298408
 20
10.6016998546259
 30
0.0
 11
134.3373594298408
 21
23.40229985462591
 31
0.0
  0
LINE
  5
169F
330
149A
100
AcDbEntity
  8
0
 62
     7
100
AcDbLine
 10
134.3373594298408
 20
23.40229985462591
 30
0.0
 11
133.5373594298409
 21
23.40229985462591
 31
0.0
  0
LINE
  5
16A0
330
149A
100
AcDbEntity
  8
0
 62
     7
100
AcDbLine
 10
133.5373594298409
 20
23.40229985462591
 30
0.0
 11
133.5373594298409
 21
24.0030998546259
 31
0.0
  0
LINE
  5
16A1
330
149A
100
AcDbEntity
  8
0
 62
     7
100
AcDbLine
 10
133.5373594298409
 20
24.0030998546259
 30
0.0
 11
119.5373594298408
 21
24.0030998546259
 31
0.0
  0
LINE
  5
16A2
330
149A
100
AcDbEntity
  8
0
  6
Continuous
 62
     7
100
AcDbLine
 10
12.38126942984115
 20
24.00309985462588
 30
0.0
 11
28.76205942984319
 21
24.0030998546259
 31
0.0
  0
LINE
  5
16A3
330
149A
100
AcDbEntity
  8
0
  6
Continuous
 62
     7
100
AcDbLine
 10
12.38126942984115
 20
10.00219985462587
 30
0.0
 11
28.76205942984325
 21
10.00355985462593
 31
0.0
  0
LINE
  5
16A4
330
149A
100
AcDbEntity
  8
0
  6
Continuous
 62
     7
100
AcDbLine
 10
33.81255942984086
 20
24.0030998546259
 30
0.0
 11
50.1931594298411
 21
24.0030998546259
 31
0.0
  0
LINE
  5
16A5
330
149A
100
AcDbEntity
  8
0
  6
Continuous
 62
     7
100
AcDbLine
 10
33.81255942984086
 20
10.00199985462589
 30
0.0
 11
50.1931594298411
 21
10.0021998546259
 31
0.0
  0
LINE
  5
16A6
330
149A
100
AcDbEntity
  8
0
  6
Continuous
 62
     7
100
AcDbLine
 10
57.62505942984086
 20
24.0030998546259
 30
0.0
 11
74.00565942984099
 21
24.0030998546259
 31
0.0
  0
LINE
  5
16A7
330
149A
100
AcDbEntity
  8
0
  6
Continuous
 62
     7
100
AcDbLine
 10
57.62505942984086
 20
10.00199985462589
 30
0.0
 11
74.00565942984099
 21
10.0021998546259
 31
0.0
  0
LINE
  5
16A8
330
149A
100
AcDbEntity
  8
0
  6
Continuous
 62
     7
100
AcDbLine
 10
136.0618594298408
 20
26.52649985462591
 30
0.0
 11
136.0618594298408
 21
-0.000000145374031
 31
0.0
  0
ENDBLK
  5
16AC
330
149A
100
AcDbEntity
  8
0
100
AcDbBlockEnd
  0
BLOCK
  5
1710
330
16FA
100
AcDbEntity
  8
0
100
AcDbBlockBegin
  2
A$C6F671496
 70
     0
 10
0.0
 20
0.0
 30
0.0
  3
A$C6F671496
  1

  0
LINE
  5
16FB
330
16FA
100
AcDbEntity
  8
0
 62
     7
420
 16777215
100
AcDbLine
 10
109.5399500224405
 20
7.374602600075775
 30
0.0
 11
109.5399500224405
 21
26.42459260007556
 31
0.0
  0
LINE
  5
16FC
330
16FA
100
AcDbEntity
  8
0
 62
     7
420
 16777215
100
AcDbLine
 10
109.5399500224405
 20
26.42459260007556
 30
0.0
 11
119.0629500224406
 21
26.42459260007556
 31
0.0
  0
LINE
  5
16FD
330
16FA
100
AcDbEntity
  8
0
 62
     7
420
 16777215
100
AcDbLine
 10
119.0629500224406
 20
26.42459260007556
 30
0.0
 11
119.0629500224406
 21
7.374602600075775
 31
0.0
  0
LINE
  5
16FE
330
16FA
100
AcDbEntity
  8
0
 62
     7
420
 16777215
100
AcDbLine
 10
119.0629500224406
 20
7.374602600075775
 30
0.0
 11
176.3149500224405
 21
7.374602600075775
 31
0.0
  0
LINE
  5
16FF
330
16FA
100
AcDbEntity
  8
0
 62
     7
420
 16777215
100
AcDbLine
 10
176.3149500224405
 20
7.374602600075775
 30
0.0
 11
176.3149500224405
 21
121.8762926000757
 31
0.0
  0
LINE
  5
1700
330
16FA
100
AcDbEntity
  8
0
  6
Continuous
 62
     7
420
 16777215
100
AcDbLine
 10
183.6899500224401
 20
129.2520002000758
 30
0.0
 11
183.6899500224401
 21
0.0000002000756467
 31
0.0
  0
LINE
  5
1701
330
16FA
100
AcDbEntity
  8
0
  6
Continuous
 62
     7
420
 16777215
100
AcDbLine
 10
4.764950022440416
 20
129.2520002000758
 30
0.0
 11
183.6899500224402
 21
129.2520002000758
 31
0.0
  0
LINE
  5
1702
330
16FA
100
AcDbEntity
  8
0
  6
Continuous
 62
     7
420
 16777215
100
AcDbLine
 10
4.764950022440416
 20
121.8762926000757
 30
0.0
 11
176.3149500224405
 21
121.8762926000757
 31
0.0
  0
LINE
  5
1703
330
16FA
100
AcDbEntity
  8
0
  6
Continuous
 62
     7
420
 16777215
100
AcDbLine
 10
109.5399500224405
 20
7.374602600075775
 30
0.0
 11
0.000000022440986
 21
7.374602600075775
 31
0.0
  0
LINE
  5
1704
330
16FA
100
AcDbEntity
  8
0
  6
Continuous
 62
     7
420
 16777215
100
AcDbLine
 10
0.000000022440986
 20
0.0000002000756467
 30
0.0
 11
183.6899500224401
 21
0.0000002000756467
 31
0.0
  0
LINE
  5
1705
330
16FA
100
AcDbEntity
  8
0
  6
Continuous
 62
     7
420
 16777215
100
AcDbLine
 10
4.764950022440416
 20
129.2520002000758
 30
0.0
 11
4.764950022440416
 21
121.8762926000757
 31
0.0
  0
LINE
  5
1706
330
16FA
100
AcDbEntity
  8
0
  6
Continuous
 62
     7
420
 16777215
100
AcDbLine
 10
0.000000022440986
 20
7.374602600075775
 30
0.0
 11
0.000000022440986
 21
0.0000002000756467
 31
0.0
  0
CIRCLE
  5
1707
330
16FA
100
AcDbEntity
  8
0
  6
Continuous
 62
     7
420
 16777215
100
AcDbCircle
 10
12.72795002244049
 20
3.737301400075779
 30
0.0
 40
1.5
  0
CIRCLE
  5
1708
330
16FA
100
AcDbEntity
  8
0
  6
Continuous
 62
     7
420
 16777215
100
AcDbCircle
 10
92.98966112379719
 20
3.737301400075779
 30
0.0
 40
1.5
  0
CIRCLE
  5
1709
330
16FA
100
AcDbEntity
  8
0
  6
Continuous
 62
     7
420
 16777215
100
AcDbCircle
 10
179.9524500224404
 20
3.737301400075779
 30
0.0
 40
1.5
  0
CIRCLE
  5
170A
330
16FA
100
AcDbEntity
  8
0
  6
Continuous
 62
     7
420
 16777215
100
AcDbCircle
 10
179.9524500224404
 20
64.62570730007579
 30
0.0
 40
1.5
  0
CIRCLE
  5
170B
330
16FA
100
AcDbEntity
  8
0
  6
Continuous
 62
     7
420
 16777215
100
AcDbCircle
 10
179.9524500224404
 20
125.5141464000758
 30
0.0
 40
1.5
  0
CIRCLE
  5
170C
330
16FA
100
AcDbEntity
  8
0
  6
Continuous
 62
     7
420
 16777215
100
AcDbCircle
 10
12.72795002244049
 20
125.5141464000758
 30
0.0
 40
1.5
  0
CIRCLE
  5
170D
330
16FA
100
AcDbEntity
  8
0
  6
Continuous
 62
     7
420
 16777215
100
AcDbCircle
 10
92.98966112379719
 20
125.5141464000758
 30
0.0
 40
1.5
  0
ENDBLK
  5
1711
330
16FA
100
AcDbEntity
  8
0
100
AcDbBlockEnd
  0
ENDSEC
  0
SECTION
  2
ENTITIES
  0
LINE
  5
F1
330
6F
100
AcDbEntity
  8
0
 62
     0
100
AcDbLine
 10
75.15260000000001
 20
43.852
 30
0.0
 11
75.15260000000001
 21
38.6387
 31
0.0
  0
LINE
  5
F2
330
6F
100
AcDbEntity
  8
0
 62
     0
100
AcDbLine
 10
75.15260000000001
 20
38.6387
 30
0.0
 11
77.81919999999999
 21
38.6457
 31
0.0
  0
LINE
  5
F3
330
6F
100
AcDbEntity
  8
0
 62
     0
100
AcDbLine
 10
77.81919999999999
 20
38.6457
 30
0.0
 11
77.81919999999999
 21
43.852
 31
0.0
  0
LINE
  5
F4
330
6F
100
AcDbEntity
  8
0
 62
     0
100
AcDbLine
 10
77.81919999999999
 20
43.852
 30
0.0
 11
75.15260000000001
 21
43.852
 31
0.0
  0
LINE
  5
F5
330
6F
100
AcDbEntity
  8
0
 62
     0
100
AcDbLine
 10
191.834
 20
43.852
 30
0.0
 11
191.834
 21
38.6387
 31
0.0
  0
LINE
  5
F6
330
6F
100
AcDbEntity
  8
0
 62
     0
100
AcDbLine
 10
191.834
 20
38.6387
 30
0.0
 11
194.499
 21
38.6457
 31
0.0
  0
LINE
  5
F7
330
6F
100
AcDbEntity
  8
0
 62
     0
100
AcDbLine
 10
194.499
 20
38.6457
 30
0.0
 11
194.499
 21
43.852
 31
0.0
  0
LINE
  5
F8
330
6F
100
AcDbEntity
  8
0
 62
     0
100
AcDbLine
 10
194.499
 20
43.852
 30
0.0
 11
191.834
 21
43.852
 31
0.0
  0
LINE
  5
F9
330
6F
100
AcDbEntity
  8
0
 62
     0
100
AcDbLine
 10
103.344
 20
43.852
 30
0.0
 11
106.011
 21
43.852
 31
0.0
  0
LINE
  5
FA
330
6F
100
AcDbEntity
  8
0
 62
     0
100
AcDbLine
 10
106.011
 20
43.852
 30
0.0
 11
106.011
 21
38.6457
 31
0.0
  0
LINE
  5
FB
330
6F
100
AcDbEntity
  8
0
 62
     0
100
AcDbLine
 10
106.011
 20
38.6457
 30
0.0
 11
103.344
 21
38.6457
 31
0.0
  0
LINE
  5
FC
330
6F
100
AcDbEntity
  8
0
 62
     0
100
AcDbLine
 10
103.344
 20
38.6457
 30
0.0
 11
103.344
 21
43.852
 31
0.0
  0
LINE
  5
FD
330
6F
100
AcDbEntity
  8
0
 62
     0
100
AcDbLine
 10
220.026
 20
43.852
 30
0.0
 11
222.692
 21
43.852
 31
0.0
  0
LINE
  5
FE
330
6F
100
AcDbEntity
  8
0
 62
     0
100
AcDbLine
 10
222.692
 20
43.852
 30
0.0
 11
222.692
 21
38.6457
 31
0.0
  0
LINE
  5
FF
330
6F
100
AcDbEntity
  8
0
 62
     0
100
AcDbLine
 10
222.692
 20
38.6457
 30
0.0
 11
220.026
 21
38.6457
 31
0.0
  0
LINE
  5
100
330
6F
100
AcDbEntity
  8
0
 62
     0
100
AcDbLine
 10
220.026
 20
38.6457
 30
0.0
 11
220.026
 21
43.852
 31
0.0
  0
LINE
  5
104
330
6F
100
AcDbEntity
  8
0
 62
     0
100
AcDbLine
 10
25.6315
 20
41.3247
 30
0.0
 11
25.6315
 21
54.1253
 31
0.0
  0
LINE
  5
108
330
6F
100
AcDbEntity
  8
0
 62
     0
100
AcDbLine
 10
49.4453
 20
41.3247
 30
0.0
 11
49.4453
 21
54.1253
 31
0.0
  0
LINE
  5
109
330
6F
100
AcDbEntity
  8
0
 62
     0
100
AcDbLine
 10
82.7814
 20
54.1253
 30
0.0
 11
98.38230000000001
 21
54.1253
 31
0.0
  0
LINE
  5
10A
330
6F
100
AcDbEntity
  8
0
 62
     0
100
AcDbLine
 10
98.38230000000001
 20
54.1253
 30
0.0
 11
98.38230000000001
 21
41.3247
 31
0.0
  0
LINE
  5
10B
330
6F
100
AcDbEntity
  8
0
 62
     0
100
AcDbLine
 10
98.38230000000001
 20
41.3247
 30
0.0
 11
82.7814
 21
41.3247
 31
0.0
  0
LINE
  5
10C
330
6F
100
AcDbEntity
  8
0
 62
     0
100
AcDbLine
 10
82.7814
 20
41.3247
 30
0.0
 11
82.7814
 21
54.1253
 31
0.0
  0
LINE
  5
10D
330
6F
100
AcDbEntity
  8
0
 62
     0
100
AcDbLine
 10
111.356
 20
54.1253
 30
0.0
 11
126.957
 21
54.1253
 31
0.0
  0
LINE
  5
10E
330
6F
100
AcDbEntity
  8
0
 62
     0
100
AcDbLine
 10
126.957
 20
54.1253
 30
0.0
 11
126.957
 21
41.3247
 31
0.0
  0
LINE
  5
10F
330
6F
100
AcDbEntity
  8
0
 62
     0
100
AcDbLine
 10
126.957
 20
41.3247
 30
0.0
 11
111.356
 21
41.3247
 31
0.0
  0
LINE
  5
110
330
6F
100
AcDbEntity
  8
0
 62
     0
100
AcDbLine
 10
111.356
 20
41.3247
 30
0.0
 11
111.356
 21
54.1253
 31
0.0
  0
LINE
  5
111
330
6F
100
AcDbEntity
  8
0
 62
     0
100
AcDbLine
 10
199.463
 20
54.1253
 30
0.0
 11
215.062
 21
54.1253
 31
0.0
  0
LINE
  5
112
330
6F
100
AcDbEntity
  8
0
 62
     0
100
AcDbLine
 10
215.062
 20
54.1253
 30
0.0
 11
215.062
 21
41.3247
 31
0.0
  0
LINE
  5
113
330
6F
100
AcDbEntity
  8
0
 62
     0
100
AcDbLine
 10
215.062
 20
41.3247
 30
0.0
 11
199.463
 21
41.3247
 31
0.0
  0
LINE
  5
114
330
6F
100
AcDbEntity
  8
0
 62
     0
100
AcDbLine
 10
199.463
 20
41.3247
 30
0.0
 11
199.463
 21
54.1253
 31
0.0
  0
LINE
  5
116
330
6F
100
AcDbEntity
  8
0
 62
     0
100
AcDbLine
 10
255.545
 20
54.1253
 30
0.0
 11
255.545
 21
41.3247
 31
0.0
  0
LINE
  5
119
330
6F
100
AcDbEntity
  8
0
 62
     0
100
AcDbLine
 10
258.9940000000005
 20
54.1252
 30
0.0
 11
296.0250000000023
 21
54.1252
 31
0.0
  0
LINE
  5
11B
330
6F
100
AcDbEntity
  8
0
 62
     0
100
AcDbLine
 10
296.0250000000023
 20
41.32460000000008
 30
0.0
 11
258.9940000000005
 21
41.32460000000008
 31
0.0
  0
LINE
  5
11D
330
6F
100
AcDbEntity
  8
0
 62
     0
100
AcDbLine
 10
301.856
 20
54.1253
 30
0.0
 11
317.457
 21
54.1253
 31
0.0
  0
LINE
  5
11E
330
6F
100
AcDbEntity
  8
0
 62
     0
100
AcDbLine
 10
317.457
 20
54.1253
 30
0.0
 11
317.457
 21
41.3247
 31
0.0
  0
LINE
  5
11F
330
6F
100
AcDbEntity
  8
0
 62
     0
100
AcDbLine
 10
317.457
 20
41.3247
 30
0.0
 11
301.856
 21
41.3247
 31
0.0
  0
LINE
  5
120
330
6F
100
AcDbEntity
  8
0
 62
     0
100
AcDbLine
 10
301.856
 20
41.3247
 30
0.0
 11
301.856
 21
54.1253
 31
0.0
  0
LINE
  5
121
330
6F
100
AcDbEntity
  8
0
 62
     0
100
AcDbLine
 10
320.906
 20
54.1253
 30
0.0
 11
336.5069999999999
 21
54.1253
 31
0.0
  0
LINE
  5
122
330
6F
100
AcDbEntity
  8
0
 62
     0
100
AcDbLine
 10
336.5069999999999
 20
54.1253
 30
0.0
 11
336.5069999999999
 21
41.3247
 31
0.0
  0
LINE
  5
123
330
6F
100
AcDbEntity
  8
0
 62
     0
100
AcDbLine
 10
336.5069999999999
 20
41.3247
 30
0.0
 11
320.906
 21
41.3247
 31
0.0
  0
LINE
  5
124
330
6F
100
AcDbEntity
  8
0
 62
     0
100
AcDbLine
 10
320.906
 20
41.3247
 30
0.0
 11
320.906
 21
54.1253
 31
0.0
  0
LINE
  5
125
330
6F
100
AcDbEntity
  8
0
 62
     0
100
AcDbLine
 10
339.956
 20
54.1253
 30
0.0
 11
355.558
 21
54.1253
 31
0.0
  0
LINE
  5
126
330
6F
100
AcDbEntity
  8
0
 62
     0
100
AcDbLine
 10
355.558
 20
54.1253
 30
0.0
 11
355.558
 21
41.3247
 31
0.0
  0
LINE
  5
127
330
6F
100
AcDbEntity
  8
0
 62
     0
100
AcDbLine
 10
355.558
 20
41.3247
 30
0.0
 11
339.956
 21
41.3247
 31
0.0
  0
LINE
  5
128
330
6F
100
AcDbEntity
  8
0
 62
     0
100
AcDbLine
 10
339.956
 20
41.3247
 30
0.0
 11
339.956
 21
54.1253
 31
0.0
  0
LINE
  5
129
330
6F
100
AcDbEntity
  8
0
 62
     0
100
AcDbLine
 10
6.096459999999999
 20
62.902
 30
0.0
 11
6.096459999999999
 21
57.68869999999999
 31
0.0
  0
LINE
  5
12A
330
6F
100
AcDbEntity
  8
0
 62
     0
100
AcDbLine
 10
6.096459999999999
 20
57.68869999999999
 30
0.0
 11
8.76293
 21
57.6957
 31
0.0
  0
LINE
  5
12B
330
6F
100
AcDbEntity
  8
0
 62
     0
100
AcDbLine
 10
8.76293
 20
57.6957
 30
0.0
 11
8.76293
 21
62.902
 31
0.0
  0
LINE
  5
12C
330
6F
100
AcDbEntity
  8
0
 62
     0
100
AcDbLine
 10
8.76293
 20
62.902
 30
0.0
 11
6.096459999999999
 21
62.902
 31
0.0
  0
LINE
  5
12D
330
6F
100
AcDbEntity
  8
0
 62
     0
100
AcDbLine
 10
289.242
 20
62.902
 30
0.0
 11
289.242
 21
57.68869999999999
 31
0.0
  0
LINE
  5
12E
330
6F
100
AcDbEntity
  8
0
 62
     0
100
AcDbLine
 10
289.242
 20
57.68869999999999
 30
0.0
 11
291.907
 21
57.6957
 31
0.0
  0
LINE
  5
12F
330
6F
100
AcDbEntity
  8
0
 62
     0
100
AcDbLine
 10
291.907
 20
57.6957
 30
0.0
 11
291.907
 21
62.902
 31
0.0
  0
LINE
  5
130
330
6F
100
AcDbEntity
  8
0
 62
     0
100
AcDbLine
 10
291.907
 20
62.902
 30
0.0
 11
289.242
 21
62.902
 31
0.0
  0
LINE
  5
131
330
6F
100
AcDbEntity
  8
0
 62
     0
100
AcDbLine
 10
34.2883
 20
62.902
 30
0.0
 11
36.9549
 21
62.902
 31
0.0
  0
LINE
  5
132
330
6F
100
AcDbEntity
  8
0
 62
     0
100
AcDbLine
 10
36.9549
 20
62.902
 30
0.0
 11
36.9549
 21
57.6957
 31
0.0
  0
LINE
  5
133
330
6F
100
AcDbEntity
  8
0
 62
     0
100
AcDbLine
 10
36.9549
 20
57.6957
 30
0.0
 11
34.2883
 21
57.6957
 31
0.0
  0
LINE
  5
134
330
6F
100
AcDbEntity
  8
0
 62
     0
100
AcDbLine
 10
34.2883
 20
57.6957
 30
0.0
 11
34.2883
 21
62.902
 31
0.0
  0
LINE
  5
135
330
6F
100
AcDbEntity
  8
0
 62
     0
100
AcDbLine
 10
313.118
 20
62.902
 30
0.0
 11
315.784
 21
62.902
 31
0.0
  0
LINE
  5
136
330
6F
100
AcDbEntity
  8
0
 62
     0
100
AcDbLine
 10
315.784
 20
62.902
 30
0.0
 11
315.784
 21
57.6957
 31
0.0
  0
LINE
  5
137
330
6F
100
AcDbEntity
  8
0
 62
     0
100
AcDbLine
 10
315.784
 20
57.6957
 30
0.0
 11
313.118
 21
57.6957
 31
0.0
  0
LINE
  5
138
330
6F
100
AcDbEntity
  8
0
 62
     0
100
AcDbLine
 10
313.118
 20
57.6957
 30
0.0
 11
313.118
 21
62.902
 31
0.0
  0
LINE
  5
139
330
6F
100
AcDbEntity
  8
0
 62
     0
100
AcDbLine
 10
13.7253
 20
73.17529999999999
 30
0.0
 11
29.326
 21
73.17529999999999
 31
0.0
  0
LINE
  5
13A
330
6F
100
AcDbEntity
  8
0
 62
     0
100
AcDbLine
 10
29.326
 20
73.17529999999999
 30
0.0
 11
29.326
 21
60.37469999999999
 31
0.0
  0
LINE
  5
13B
330
6F
100
AcDbEntity
  8
0
 62
     0
100
AcDbLine
 10
29.326
 20
60.37469999999999
 30
0.0
 11
13.7253
 21
60.37469999999999
 31
0.0
  0
LINE
  5
13C
330
6F
100
AcDbEntity
  8
0
 62
     0
100
AcDbLine
 10
13.7253
 20
60.37469999999999
 30
0.0
 11
13.7253
 21
73.17529999999999
 31
0.0
  0
LINE
  5
13D
330
6F
100
AcDbEntity
  8
0
 62
     0
100
AcDbLine
 10
44.6814
 20
73.17529999999999
 30
0.0
 11
60.2823
 21
73.17529999999999
 31
0.0
  0
LINE
  5
13E
330
6F
100
AcDbEntity
  8
0
 62
     0
100
AcDbLine
 10
60.2823
 20
73.17529999999999
 30
0.0
 11
60.2823
 21
60.37469999999999
 31
0.0
  0
LINE
  5
13F
330
6F
100
AcDbEntity
  8
0
 62
     0
100
AcDbLine
 10
60.2823
 20
60.37469999999999
 30
0.0
 11
44.6814
 21
60.37469999999999
 31
0.0
  0
LINE
  5
140
330
6F
100
AcDbEntity
  8
0
 62
     0
100
AcDbLine
 10
44.6814
 20
60.37469999999999
 30
0.0
 11
44.6814
 21
73.17529999999999
 31
0.0
  0
LINE
  5
141
330
6F
100
AcDbEntity
  8
0
 62
     0
100
AcDbLine
 10
63.7314
 20
73.17529999999999
 30
0.0
 11
79.3323
 21
73.17529999999999
 31
0.0
  0
LINE
  5
142
330
6F
100
AcDbEntity
  8
0
 62
     0
100
AcDbLine
 10
79.3323
 20
73.17529999999999
 30
0.0
 11
79.3323
 21
60.37469999999999
 31
0.0
  0
LINE
  5
143
330
6F
100
AcDbEntity
  8
0
 62
     0
100
AcDbLine
 10
79.3323
 20
60.37469999999999
 30
0.0
 11
63.7314
 21
60.37469999999999
 31
0.0
  0
LINE
  5
144
330
6F
100
AcDbEntity
  8
0
 62
     0
100
AcDbLine
 10
63.7314
 20
60.37469999999999
 30
0.0
 11
63.7314
 21
73.17529999999999
 31
0.0
  0
LINE
  5
145
330
6F
100
AcDbEntity
  8
0
 62
     0
100
AcDbLine
 10
82.7814
 20
73.17529999999999
 30
0.0
 11
98.38230000000001
 21
73.17529999999999
 31
0.0
  0
LINE
  5
146
330
6F
100
AcDbEntity
  8
0
 62
     0
100
AcDbLine
 10
98.38230000000001
 20
73.17529999999999
 30
0.0
 11
98.38230000000001
 21
60.37469999999999
 31
0.0
  0
LINE
  5
147
330
6F
100
AcDbEntity
  8
0
 62
     0
100
AcDbLine
 10
98.38230000000001
 20
60.37469999999999
 30
0.0
 11
82.7814
 21
60.37469999999999
 31
0.0
  0
LINE
  5
148
330
6F
100
AcDbEntity
  8
0
 62
     0
100
AcDbLine
 10
82.7814
 20
60.37469999999999
 30
0.0
 11
82.7814
 21
73.17529999999999
 31
0.0
  0
LINE
  5
149
330
6F
100
AcDbEntity
  8
0
 62
     0
100
AcDbLine
 10
101.831
 20
73.17529999999999
 30
0.0
 11
117.432
 21
73.17529999999999
 31
0.0
  0
LINE
  5
14A
330
6F
100
AcDbEntity
  8
0
 62
     0
100
AcDbLine
 10
117.432
 20
73.17529999999999
 30
0.0
 11
117.432
 21
60.37469999999999
 31
0.0
  0
LINE
  5
14B
330
6F
100
AcDbEntity
  8
0
 62
     0
100
AcDbLine
 10
117.432
 20
60.37469999999999
 30
0.0
 11
101.831
 21
60.37469999999999
 31
0.0
  0
LINE
  5
14C
330
6F
100
AcDbEntity
  8
0
 62
     0
100
AcDbLine
 10
101.831
 20
60.37469999999999
 30
0.0
 11
101.831
 21
73.17529999999999
 31
0.0
  0
LINE
  5
151
330
6F
100
AcDbEntity
  8
0
 62
     0
100
AcDbLine
 10
173.269
 20
73.17529999999999
 30
0.0
 11
188.87
 21
73.17529999999999
 31
0.0
  0
LINE
  5
152
330
6F
100
AcDbEntity
  8
0
 62
     0
100
AcDbLine
 10
188.87
 20
73.17529999999999
 30
0.0
 11
188.87
 21
60.37469999999999
 31
0.0
  0
LINE
  5
153
330
6F
100
AcDbEntity
  8
0
 62
     0
100
AcDbLine
 10
188.87
 20
60.37469999999999
 30
0.0
 11
173.269
 21
60.37469999999999
 31
0.0
  0
LINE
  5
154
330
6F
100
AcDbEntity
  8
0
 62
     0
100
AcDbLine
 10
173.269
 20
60.37469999999999
 30
0.0
 11
173.269
 21
73.17529999999999
 31
0.0
  0
LINE
  5
155
330
6F
100
AcDbEntity
  8
0
 62
     0
100
AcDbLine
 10
192.32
 20
73.17529999999999
 30
0.0
 11
207.92
 21
73.17529999999999
 31
0.0
  0
LINE
  5
156
330
6F
100
AcDbEntity
  8
0
 62
     0
100
AcDbLine
 10
207.92
 20
73.17529999999999
 30
0.0
 11
207.92
 21
60.37469999999999
 31
0.0
  0
LINE
  5
157
330
6F
100
AcDbEntity
  8
0
 62
     0
100
AcDbLine
 10
207.92
 20
60.37469999999999
 30
0.0
 11
192.32
 21
60.37469999999999
 31
0.0
  0
LINE
  5
158
330
6F
100
AcDbEntity
  8
0
 62
     0
100
AcDbLine
 10
192.32
 20
60.37469999999999
 30
0.0
 11
192.32
 21
73.17529999999999
 31
0.0
  0
LINE
  5
159
330
6F
100
AcDbEntity
  8
0
 62
     0
100
AcDbLine
 10
211.37
 20
73.17529999999999
 30
0.0
 11
226.97
 21
73.17529999999999
 31
0.0
  0
LINE
  5
15A
330
6F
100
AcDbEntity
  8
0
 62
     0
100
AcDbLine
 10
226.97
 20
73.17529999999999
 30
0.0
 11
226.97
 21
60.37469999999999
 31
0.0
  0
LINE
  5
15B
330
6F
100
AcDbEntity
  8
0
 62
     0
100
AcDbLine
 10
226.97
 20
60.37469999999999
 30
0.0
 11
211.37
 21
60.37469999999999
 31
0.0
  0
LINE
  5
15C
330
6F
100
AcDbEntity
  8
0
 62
     0
100
AcDbLine
 10
211.37
 20
60.37469999999999
 30
0.0
 11
211.37
 21
73.17529999999999
 31
0.0
  0
LINE
  5
15D
330
6F
100
AcDbEntity
  8
0
 62
     0
100
AcDbLine
 10
230.42
 20
73.17529999999999
 30
0.0
 11
246.02
 21
73.17529999999999
 31
0.0
  0
LINE
  5
15E
330
6F
100
AcDbEntity
  8
0
 62
     0
100
AcDbLine
 10
246.02
 20
73.17529999999999
 30
0.0
 11
246.02
 21
60.37469999999999
 31
0.0
  0
LINE
  5
15F
330
6F
100
AcDbEntity
  8
0
 62
     0
100
AcDbLine
 10
246.02
 20
60.37469999999999
 30
0.0
 11
230.42
 21
60.37469999999999
 31
0.0
  0
LINE
  5
160
330
6F
100
AcDbEntity
  8
0
 62
     0
100
AcDbLine
 10
230.42
 20
60.37469999999999
 30
0.0
 11
230.42
 21
73.17529999999999
 31
0.0
  0
LINE
  5
161
330
6F
100
AcDbEntity
  8
0
 62
     0
100
AcDbLine
 10
249.47
 20
73.17529999999999
 30
0.0
 11
265.07
 21
73.17529999999999
 31
0.0
  0
LINE
  5
162
330
6F
100
AcDbEntity
  8
0
 62
     0
100
AcDbLine
 10
265.07
 20
73.17529999999999
 30
0.0
 11
265.07
 21
60.37469999999999
 31
0.0
  0
LINE
  5
163
330
6F
100
AcDbEntity
  8
0
 62
     0
100
AcDbLine
 10
265.07
 20
60.37469999999999
 30
0.0
 11
249.47
 21
60.37469999999999
 31
0.0
  0
LINE
  5
164
330
6F
100
AcDbEntity
  8
0
 62
     0
100
AcDbLine
 10
249.47
 20
60.37469999999999
 30
0.0
 11
249.47
 21
73.17529999999999
 31
0.0
  0
LINE
  5
165
330
6F
100
AcDbEntity
  8
0
 62
     0
100
AcDbLine
 10
268.52
 20
73.17529999999999
 30
0.0
 11
284.12
 21
73.17529999999999
 31
0.0
  0
LINE
  5
166
330
6F
100
AcDbEntity
  8
0
 62
     0
100
AcDbLine
 10
284.12
 20
73.17529999999999
 30
0.0
 11
284.12
 21
60.37469999999999
 31
0.0
  0
LINE
  5
167
330
6F
100
AcDbEntity
  8
0
 62
     0
100
AcDbLine
 10
284.12
 20
60.37469999999999
 30
0.0
 11
268.52
 21
60.37469999999999
 31
0.0
  0
LINE
  5
168
330
6F
100
AcDbEntity
  8
0
 62
     0
100
AcDbLine
 10
268.52
 20
60.37469999999999
 30
0.0
 11
268.52
 21
73.17529999999999
 31
0.0
  0
LINE
  5
169
330
6F
100
AcDbEntity
  8
0
 62
     0
100
AcDbLine
 10
294.7129999999999
 20
73.17529999999999
 30
0.0
 11
310.312
 21
73.17529999999999
 31
0.0
  0
LINE
  5
16A
330
6F
100
AcDbEntity
  8
0
 62
     0
100
AcDbLine
 10
310.312
 20
73.17529999999999
 30
0.0
 11
310.312
 21
60.37469999999999
 31
0.0
  0
LINE
  5
16B
330
6F
100
AcDbEntity
  8
0
 62
     0
100
AcDbLine
 10
310.312
 20
60.37469999999999
 30
0.0
 11
294.7129999999999
 21
60.37469999999999
 31
0.0
  0
LINE
  5
16C
330
6F
100
AcDbEntity
  8
0
 62
     0
100
AcDbLine
 10
294.7129999999999
 20
60.37469999999999
 30
0.0
 11
294.7129999999999
 21
73.17529999999999
 31
0.0
  0
LINE
  5
16D
330
6F
100
AcDbEntity
  8
0
 62
     0
100
AcDbLine
 10
320.906
 20
73.17529999999999
 30
0.0
 11
336.5069999999999
 21
73.17529999999999
 31
0.0
  0
LINE
  5
16E
330
6F
100
AcDbEntity
  8
0
 62
     0
100
AcDbLine
 10
336.5069999999999
 20
73.17529999999999
 30
0.0
 11
336.5069999999999
 21
60.37469999999999
 31
0.0
  0
LINE
  5
16F
330
6F
100
AcDbEntity
  8
0
 62
     0
100
AcDbLine
 10
336.5069999999999
 20
60.37469999999999
 30
0.0
 11
320.906
 21
60.37469999999999
 31
0.0
  0
LINE
  5
170
330
6F
100
AcDbEntity
  8
0
 62
     0
100
AcDbLine
 10
320.906
 20
60.37469999999999
 30
0.0
 11
320.906
 21
73.17529999999999
 31
0.0
  0
LINE
  5
171
330
6F
100
AcDbEntity
  8
0
 62
     0
100
AcDbLine
 10
339.956
 20
73.17529999999999
 30
0.0
 11
355.558
 21
73.17529999999999
 31
0.0
  0
LINE
  5
172
330
6F
100
AcDbEntity
  8
0
 62
     0
100
AcDbLine
 10
355.558
 20
73.17529999999999
 30
0.0
 11
355.558
 21
60.37469999999999
 31
0.0
  0
LINE
  5
173
330
6F
100
AcDbEntity
  8
0
 62
     0
100
AcDbLine
 10
355.558
 20
60.37469999999999
 30
0.0
 11
339.956
 21
60.37469999999999
 31
0.0
  0
LINE
  5
174
330
6F
100
AcDbEntity
  8
0
 62
     0
100
AcDbLine
 10
339.956
 20
60.37469999999999
 30
0.0
 11
339.956
 21
73.17529999999999
 31
0.0
  0
LINE
  5
179
330
6F
100
AcDbEntity
  8
0
 62
     0
100
AcDbLine
 10
301.371
 20
81.95200000000001
 30
0.0
 11
301.371
 21
76.73869999999999
 31
0.0
  0
LINE
  5
17A
330
6F
100
AcDbEntity
  8
0
 62
     0
100
AcDbLine
 10
301.371
 20
76.73869999999999
 30
0.0
 11
304.038
 21
76.7443
 31
0.0
  0
LINE
  5
17B
330
6F
100
AcDbEntity
  8
0
 62
     0
100
AcDbLine
 10
304.038
 20
76.7443
 30
0.0
 11
304.038
 21
81.95200000000001
 31
0.0
  0
LINE
  5
17C
330
6F
100
AcDbEntity
  8
0
 62
     0
100
AcDbLine
 10
304.038
 20
81.95200000000001
 30
0.0
 11
301.371
 21
81.95200000000001
 31
0.0
  0
LINE
  5
181
330
6F
100
AcDbEntity
  8
0
 62
     0
100
AcDbLine
 10
329.563
 20
81.95200000000001
 30
0.0
 11
332.23
 21
81.95200000000001
 31
0.0
  0
LINE
  5
182
330
6F
100
AcDbEntity
  8
0
 62
     0
100
AcDbLine
 10
332.23
 20
81.95200000000001
 30
0.0
 11
332.23
 21
76.7443
 31
0.0
  0
LINE
  5
183
330
6F
100
AcDbEntity
  8
0
 62
     0
100
AcDbLine
 10
332.23
 20
76.7443
 30
0.0
 11
329.563
 21
76.7443
 31
0.0
  0
LINE
  5
184
330
6F
100
AcDbEntity
  8
0
 62
     0
100
AcDbLine
 10
329.563
 20
76.7443
 30
0.0
 11
329.563
 21
81.95200000000001
 31
0.0
  0
LINE
  5
185
330
6F
100
AcDbEntity
  8
0
 62
     0
100
AcDbLine
 10
8.96278
 20
92.2253
 30
0.0
 11
24.5622
 21
92.2253
 31
0.0
  0
LINE
  5
186
330
6F
100
AcDbEntity
  8
0
 62
     0
100
AcDbLine
 10
24.5622
 20
92.2253
 30
0.0
 11
24.5622
 21
79.4247
 31
0.0
  0
LINE
  5
187
330
6F
100
AcDbEntity
  8
0
 62
     0
100
AcDbLine
 10
24.5622
 20
79.4247
 30
0.0
 11
8.96278
 21
79.4247
 31
0.0
  0
LINE
  5
188
330
6F
100
AcDbEntity
  8
0
 62
     0
100
AcDbLine
 10
8.96278
 20
79.4247
 30
0.0
 11
8.96278
 21
92.2253
 31
0.0
  0
LINE
  5
189
330
6F
100
AcDbEntity
  8
0
 62
     0
100
AcDbLine
 10
35.1565
 20
92.2253
 30
0.0
 11
50.7573
 21
92.2253
 31
0.0
  0
LINE
  5
18A
330
6F
100
AcDbEntity
  8
0
 62
     0
100
AcDbLine
 10
50.7573
 20
92.2253
 30
0.0
 11
50.7573
 21
79.4247
 31
0.0
  0
LINE
  5
18B
330
6F
100
AcDbEntity
  8
0
 62
     0
100
AcDbLine
 10
50.7573
 20
79.4247
 30
0.0
 11
35.1565
 21
79.4247
 31
0.0
  0
LINE
  5
18C
330
6F
100
AcDbEntity
  8
0
 62
     0
100
AcDbLine
 10
35.1565
 20
79.4247
 30
0.0
 11
35.1565
 21
92.2253
 31
0.0
  0
LINE
  5
18D
330
6F
100
AcDbEntity
  8
0
 62
     0
100
AcDbLine
 10
54.2064
 20
92.2253
 30
0.0
 11
69.8073
 21
92.2253
 31
0.0
  0
LINE
  5
18E
330
6F
100
AcDbEntity
  8
0
 62
     0
100
AcDbLine
 10
69.8073
 20
92.2253
 30
0.0
 11
69.8073
 21
79.4247
 31
0.0
  0
LINE
  5
18F
330
6F
100
AcDbEntity
  8
0
 62
     0
100
AcDbLine
 10
69.8073
 20
79.4247
 30
0.0
 11
54.2064
 21
79.4247
 31
0.0
  0
LINE
  5
190
330
6F
100
AcDbEntity
  8
0
 62
     0
100
AcDbLine
 10
54.2064
 20
79.4247
 30
0.0
 11
54.2064
 21
92.2253
 31
0.0
  0
LINE
  5
191
330
6F
100
AcDbEntity
  8
0
 62
     0
100
AcDbLine
 10
73.25639999999999
 20
92.2253
 30
0.0
 11
88.8573
 21
92.2253
 31
0.0
  0
LINE
  5
192
330
6F
100
AcDbEntity
  8
0
 62
     0
100
AcDbLine
 10
88.8573
 20
92.2253
 30
0.0
 11
88.8573
 21
79.4247
 31
0.0
  0
LINE
  5
193
330
6F
100
AcDbEntity
  8
0
 62
     0
100
AcDbLine
 10
88.8573
 20
79.4247
 30
0.0
 11
73.25639999999999
 21
79.4247
 31
0.0
  0
LINE
  5
194
330
6F
100
AcDbEntity
  8
0
 62
     0
100
AcDbLine
 10
73.25639999999999
 20
79.4247
 30
0.0
 11
73.25639999999999
 21
92.2253
 31
0.0
  0
LINE
  5
195
330
6F
100
AcDbEntity
  8
0
 62
     0
100
AcDbLine
 10
92.30639999999999
 20
92.2253
 30
0.0
 11
107.907
 21
92.2253
 31
0.0
  0
LINE
  5
196
330
6F
100
AcDbEntity
  8
0
 62
     0
100
AcDbLine
 10
107.907
 20
92.2253
 30
0.0
 11
107.907
 21
79.4247
 31
0.0
  0
LINE
  5
197
330
6F
100
AcDbEntity
  8
0
 62
     0
100
AcDbLine
 10
107.907
 20
79.4247
 30
0.0
 11
92.30639999999999
 21
79.4247
 31
0.0
  0
LINE
  5
198
330
6F
100
AcDbEntity
  8
0
 62
     0
100
AcDbLine
 10
92.30639999999999
 20
79.4247
 30
0.0
 11
92.30639999999999
 21
92.2253
 31
0.0
  0
LINE
  5
199
330
6F
100
AcDbEntity
  8
0
 62
     0
100
AcDbLine
 10
111.356
 20
92.2253
 30
0.0
 11
126.957
 21
92.2253
 31
0.0
  0
LINE
  5
19A
330
6F
100
AcDbEntity
  8
0
 62
     0
100
AcDbLine
 10
126.957
 20
92.2253
 30
0.0
 11
126.957
 21
79.4247
 31
0.0
  0
LINE
  5
19B
330
6F
100
AcDbEntity
  8
0
 62
     0
100
AcDbLine
 10
126.957
 20
79.4247
 30
0.0
 11
111.356
 21
79.4247
 31
0.0
  0
LINE
  5
19C
330
6F
100
AcDbEntity
  8
0
 62
     0
100
AcDbLine
 10
111.356
 20
79.4247
 30
0.0
 11
111.356
 21
92.2253
 31
0.0
  0
LINE
  5
19D
330
6F
100
AcDbEntity
  8
0
 62
     0
100
AcDbLine
 10
182.795
 20
92.2253
 30
0.0
 11
198.395
 21
92.2253
 31
0.0
  0
LINE
  5
19E
330
6F
100
AcDbEntity
  8
0
 62
     0
100
AcDbLine
 10
198.395
 20
92.2253
 30
0.0
 11
198.395
 21
79.4247
 31
0.0
  0
LINE
  5
19F
330
6F
100
AcDbEntity
  8
0
 62
     0
100
AcDbLine
 10
198.395
 20
79.4247
 30
0.0
 11
182.795
 21
79.4247
 31
0.0
  0
LINE
  5
1A0
330
6F
100
AcDbEntity
  8
0
 62
     0
100
AcDbLine
 10
182.795
 20
79.4247
 30
0.0
 11
182.795
 21
92.2253
 31
0.0
  0
LINE
  5
1A1
330
6F
100
AcDbEntity
  8
0
 62
     0
100
AcDbLine
 10
201.845
 20
92.2253
 30
0.0
 11
217.445
 21
92.2253
 31
0.0
  0
LINE
  5
1A2
330
6F
100
AcDbEntity
  8
0
 62
     0
100
AcDbLine
 10
217.445
 20
92.2253
 30
0.0
 11
217.445
 21
79.4247
 31
0.0
  0
LINE
  5
1A3
330
6F
100
AcDbEntity
  8
0
 62
     0
100
AcDbLine
 10
217.445
 20
79.4247
 30
0.0
 11
201.845
 21
79.4247
 31
0.0
  0
LINE
  5
1A4
330
6F
100
AcDbEntity
  8
0
 62
     0
100
AcDbLine
 10
201.845
 20
79.4247
 30
0.0
 11
201.845
 21
92.2253
 31
0.0
  0
LINE
  5
1A5
330
6F
100
AcDbEntity
  8
0
 62
     0
100
AcDbLine
 10
220.895
 20
92.2253
 30
0.0
 11
236.495
 21
92.2253
 31
0.0
  0
LINE
  5
1A6
330
6F
100
AcDbEntity
  8
0
 62
     0
100
AcDbLine
 10
236.495
 20
92.2253
 30
0.0
 11
236.495
 21
79.4247
 31
0.0
  0
LINE
  5
1A7
330
6F
100
AcDbEntity
  8
0
 62
     0
100
AcDbLine
 10
236.495
 20
79.4247
 30
0.0
 11
220.895
 21
79.4247
 31
0.0
  0
LINE
  5
1A8
330
6F
100
AcDbEntity
  8
0
 62
     0
100
AcDbLine
 10
220.895
 20
79.4247
 30
0.0
 11
220.895
 21
92.2253
 31
0.0
  0
LINE
  5
1A9
330
6F
100
AcDbEntity
  8
0
 62
     0
100
AcDbLine
 10
239.945
 20
92.2253
 30
0.0
 11
255.545
 21
92.2253
 31
0.0
  0
LINE
  5
1AA
330
6F
100
AcDbEntity
  8
0
 62
     0
100
AcDbLine
 10
255.545
 20
92.2253
 30
0.0
 11
255.545
 21
79.4247
 31
0.0
  0
LINE
  5
1AB
330
6F
100
AcDbEntity
  8
0
 62
     0
100
AcDbLine
 10
255.545
 20
79.4247
 30
0.0
 11
239.945
 21
79.4247
 31
0.0
  0
LINE
  5
1AC
330
6F
100
AcDbEntity
  8
0
 62
     0
100
AcDbLine
 10
239.945
 20
79.4247
 30
0.0
 11
239.945
 21
92.2253
 31
0.0
  0
LINE
  5
1AD
330
6F
100
AcDbEntity
  8
0
 62
     0
100
AcDbLine
 10
258.995
 20
92.2253
 30
0.0
 11
274.595
 21
92.2253
 31
0.0
  0
LINE
  5
1AE
330
6F
100
AcDbEntity
  8
0
 62
     0
100
AcDbLine
 10
274.595
 20
92.2253
 30
0.0
 11
274.595
 21
79.4247
 31
0.0
  0
LINE
  5
1AF
330
6F
100
AcDbEntity
  8
0
 62
     0
100
AcDbLine
 10
274.595
 20
79.4247
 30
0.0
 11
258.995
 21
79.4247
 31
0.0
  0
LINE
  5
1B0
330
6F
100
AcDbEntity
  8
0
 62
     0
100
AcDbLine
 10
258.995
 20
79.4247
 30
0.0
 11
258.995
 21
92.2253
 31
0.0
  0
LINE
  5
1B1
330
6F
100
AcDbEntity
  8
0
 62
     0
100
AcDbLine
 10
278.045
 20
92.2253
 30
0.0
 11
293.645
 21
92.2253
 31
0.0
  0
LINE
  5
1B2
330
6F
100
AcDbEntity
  8
0
 62
     0
100
AcDbLine
 10
293.645
 20
92.2253
 30
0.0
 11
293.645
 21
79.4247
 31
0.0
  0
LINE
  5
1B3
330
6F
100
AcDbEntity
  8
0
 62
     0
100
AcDbLine
 10
293.645
 20
79.4247
 30
0.0
 11
278.045
 21
79.4247
 31
0.0
  0
LINE
  5
1B4
330
6F
100
AcDbEntity
  8
0
 62
     0
100
AcDbLine
 10
278.045
 20
79.4247
 30
0.0
 11
278.045
 21
92.2253
 31
0.0
  0
LINE
  5
1B5
330
6F
100
AcDbEntity
  8
0
 62
     0
100
AcDbLine
 10
309.0
 20
92.2253
 30
0.0
 11
324.601
 21
92.2253
 31
0.0
  0
LINE
  5
1B6
330
6F
100
AcDbEntity
  8
0
 62
     0
100
AcDbLine
 10
324.601
 20
92.2253
 30
0.0
 11
324.601
 21
79.4247
 31
0.0
  0
LINE
  5
1B7
330
6F
100
AcDbEntity
  8
0
 62
     0
100
AcDbLine
 10
324.601
 20
79.4247
 30
0.0
 11
309.0
 21
79.4247
 31
0.0
  0
LINE
  5
1B8
330
6F
100
AcDbEntity
  8
0
 62
     0
100
AcDbLine
 10
309.0
 20
79.4247
 30
0.0
 11
309.0
 21
92.2253
 31
0.0
  0
LINE
  5
1B9
330
6F
100
AcDbEntity
  8
0
 62
     0
100
AcDbLine
 10
339.956
 20
92.2253
 30
0.0
 11
355.558
 21
92.2253
 31
0.0
  0
LINE
  5
1BA
330
6F
100
AcDbEntity
  8
0
 62
     0
100
AcDbLine
 10
355.558
 20
92.2253
 30
0.0
 11
355.558
 21
79.4247
 31
0.0
  0
LINE
  5
1BB
330
6F
100
AcDbEntity
  8
0
 62
     0
100
AcDbLine
 10
355.558
 20
79.4247
 30
0.0
 11
339.956
 21
79.4247
 31
0.0
  0
LINE
  5
1BC
330
6F
100
AcDbEntity
  8
0
 62
     0
100
AcDbLine
 10
339.956
 20
79.4247
 30
0.0
 11
339.956
 21
92.2253
 31
0.0
  0
LINE
  5
1BD
330
6F
100
AcDbEntity
  8
0
 62
     0
100
AcDbLine
 10
6.581529999999999
 20
111.275
 30
0.0
 11
22.1823
 21
111.275
 31
0.0
  0
LINE
  5
1BE
330
6F
100
AcDbEntity
  8
0
 62
     0
100
AcDbLine
 10
22.1823
 20
111.275
 30
0.0
 11
22.1823
 21
98.47470000000001
 31
0.0
  0
LINE
  5
1BF
330
6F
100
AcDbEntity
  8
0
 62
     0
100
AcDbLine
 10
22.1823
 20
98.47470000000001
 30
0.0
 11
6.581529999999999
 21
98.47470000000001
 31
0.0
  0
LINE
  5
1C0
330
6F
100
AcDbEntity
  8
0
 62
     0
100
AcDbLine
 10
6.581529999999999
 20
98.47470000000001
 30
0.0
 11
6.581529999999999
 21
111.275
 31
0.0
  0
LINE
  5
1C1
330
6F
100
AcDbEntity
  8
0
 62
     0
100
AcDbLine
 10
30.3954
 20
111.275
 30
0.0
 11
45.99479999999999
 21
111.275
 31
0.0
  0
LINE
  5
1C2
330
6F
100
AcDbEntity
  8
0
 62
     0
100
AcDbLine
 10
45.99479999999999
 20
111.275
 30
0.0
 11
45.99479999999999
 21
98.47470000000001
 31
0.0
  0
LINE
  5
1C3
330
6F
100
AcDbEntity
  8
0
 62
     0
100
AcDbLine
 10
45.99479999999999
 20
98.47470000000001
 30
0.0
 11
30.3954
 21
98.47470000000001
 31
0.0
  0
LINE
  5
1C4
330
6F
100
AcDbEntity
  8
0
 62
     0
100
AcDbLine
 10
30.3954
 20
98.47470000000001
 30
0.0
 11
30.3954
 21
111.275
 31
0.0
  0
LINE
  5
1C5
330
6F
100
AcDbEntity
  8
0
 62
     0
100
AcDbLine
 10
49.4453
 20
111.275
 30
0.0
 11
65.0448
 21
111.275
 31
0.0
  0
LINE
  5
1C6
330
6F
100
AcDbEntity
  8
0
 62
     0
100
AcDbLine
 10
65.0448
 20
111.275
 30
0.0
 11
65.0448
 21
98.47470000000001
 31
0.0
  0
LINE
  5
1C7
330
6F
100
AcDbEntity
  8
0
 62
     0
100
AcDbLine
 10
65.0448
 20
98.47470000000001
 30
0.0
 11
49.4453
 21
98.47470000000001
 31
0.0
  0
LINE
  5
1C8
330
6F
100
AcDbEntity
  8
0
 62
     0
100
AcDbLine
 10
49.4453
 20
98.47470000000001
 30
0.0
 11
49.4453
 21
111.275
 31
0.0
  0
LINE
  5
1C9
330
6F
100
AcDbEntity
  8
0
 62
     0
100
AcDbLine
 10
68.4953
 20
111.275
 30
0.0
 11
84.0948
 21
111.275
 31
0.0
  0
LINE
  5
1CA
330
6F
100
AcDbEntity
  8
0
 62
     0
100
AcDbLine
 10
84.0948
 20
111.275
 30
0.0
 11
84.0948
 21
98.47470000000001
 31
0.0
  0
LINE
  5
1CB
330
6F
100
AcDbEntity
  8
0
 62
     0
100
AcDbLine
 10
84.0948
 20
98.47470000000001
 30
0.0
 11
68.4953
 21
98.47470000000001
 31
0.0
  0
LINE
  5
1CC
330
6F
100
AcDbEntity
  8
0
 62
     0
100
AcDbLine
 10
68.4953
 20
98.47470000000001
 30
0.0
 11
68.4953
 21
111.275
 31
0.0
  0
LINE
  5
1CD
330
6F
100
AcDbEntity
  8
0
 62
     0
100
AcDbLine
 10
87.5453
 20
111.275
 30
0.0
 11
103.145
 21
111.275
 31
0.0
  0
LINE
  5
1CE
330
6F
100
AcDbEntity
  8
0
 62
     0
100
AcDbLine
 10
103.145
 20
111.275
 30
0.0
 11
103.145
 21
98.47470000000001
 31
0.0
  0
LINE
  5
1CF
330
6F
100
AcDbEntity
  8
0
 62
     0
100
AcDbLine
 10
103.145
 20
98.47470000000001
 30
0.0
 11
87.5453
 21
98.47470000000001
 31
0.0
  0
LINE
  5
1D0
330
6F
100
AcDbEntity
  8
0
 62
     0
100
AcDbLine
 10
87.5453
 20
98.47470000000001
 30
0.0
 11
87.5453
 21
111.275
 31
0.0
  0
LINE
  5
1D1
330
6F
100
AcDbEntity
  8
0
 62
     0
100
AcDbLine
 10
106.595
 20
111.275
 30
0.0
 11
122.195
 21
111.275
 31
0.0
  0
LINE
  5
1D2
330
6F
100
AcDbEntity
  8
0
 62
     0
100
AcDbLine
 10
122.195
 20
111.275
 30
0.0
 11
122.195
 21
98.47470000000001
 31
0.0
  0
LINE
  5
1D3
330
6F
100
AcDbEntity
  8
0
 62
     0
100
AcDbLine
 10
122.195
 20
98.47470000000001
 30
0.0
 11
106.595
 21
98.47470000000001
 31
0.0
  0
LINE
  5
1D4
330
6F
100
AcDbEntity
  8
0
 62
     0
100
AcDbLine
 10
106.595
 20
98.47470000000001
 30
0.0
 11
106.595
 21
111.275
 31
0.0
  0
LINE
  5
1D5
330
6F
100
AcDbEntity
  8
0
 62
     0
100
AcDbLine
 10
178.031
 20
111.275
 30
0.0
 11
193.632
 21
111.275
 31
0.0
  0
LINE
  5
1D6
330
6F
100
AcDbEntity
  8
0
 62
     0
100
AcDbLine
 10
193.632
 20
111.275
 30
0.0
 11
193.632
 21
98.47470000000001
 31
0.0
  0
LINE
  5
1D7
330
6F
100
AcDbEntity
  8
0
 62
     0
100
AcDbLine
 10
193.632
 20
98.47470000000001
 30
0.0
 11
178.031
 21
98.47470000000001
 31
0.0
  0
LINE
  5
1D8
330
6F
100
AcDbEntity
  8
0
 62
     0
100
AcDbLine
 10
178.031
 20
98.47470000000001
 30
0.0
 11
178.031
 21
111.275
 31
0.0
  0
LINE
  5
1D9
330
6F
100
AcDbEntity
  8
0
 62
     0
100
AcDbLine
 10
197.081
 20
111.275
 30
0.0
 11
212.682
 21
111.275
 31
0.0
  0
LINE
  5
1DA
330
6F
100
AcDbEntity
  8
0
 62
     0
100
AcDbLine
 10
212.682
 20
111.275
 30
0.0
 11
212.682
 21
98.47470000000001
 31
0.0
  0
LINE
  5
1DB
330
6F
100
AcDbEntity
  8
0
 62
     0
100
AcDbLine
 10
212.682
 20
98.47470000000001
 30
0.0
 11
197.081
 21
98.47470000000001
 31
0.0
  0
LINE
  5
1DC
330
6F
100
AcDbEntity
  8
0
 62
     0
100
AcDbLine
 10
197.081
 20
98.47470000000001
 30
0.0
 11
197.081
 21
111.275
 31
0.0
  0
LINE
  5
1DD
330
6F
100
AcDbEntity
  8
0
 62
     0
100
AcDbLine
 10
216.131
 20
111.275
 30
0.0
 11
231.732
 21
111.275
 31
0.0
  0
LINE
  5
1DE
330
6F
100
AcDbEntity
  8
0
 62
     0
100
AcDbLine
 10
231.732
 20
111.275
 30
0.0
 11
231.732
 21
98.47470000000001
 31
0.0
  0
LINE
  5
1DF
330
6F
100
AcDbEntity
  8
0
 62
     0
100
AcDbLine
 10
231.732
 20
98.47470000000001
 30
0.0
 11
216.131
 21
98.47470000000001
 31
0.0
  0
LINE
  5
1E0
330
6F
100
AcDbEntity
  8
0
 62
     0
100
AcDbLine
 10
216.131
 20
98.47470000000001
 30
0.0
 11
216.131
 21
111.275
 31
0.0
  0
LINE
  5
1E1
330
6F
100
AcDbEntity
  8
0
 62
     0
100
AcDbLine
 10
235.181
 20
111.275
 30
0.0
 11
250.782
 21
111.275
 31
0.0
  0
LINE
  5
1E2
330
6F
100
AcDbEntity
  8
0
 62
     0
100
AcDbLine
 10
250.782
 20
111.275
 30
0.0
 11
250.782
 21
98.47470000000001
 31
0.0
  0
LINE
  5
1E3
330
6F
100
AcDbEntity
  8
0
 62
     0
100
AcDbLine
 10
250.782
 20
98.47470000000001
 30
0.0
 11
235.181
 21
98.47470000000001
 31
0.0
  0
LINE
  5
1E4
330
6F
100
AcDbEntity
  8
0
 62
     0
100
AcDbLine
 10
235.181
 20
98.47470000000001
 30
0.0
 11
235.181
 21
111.275
 31
0.0
  0
LINE
  5
1E5
330
6F
100
AcDbEntity
  8
0
 62
     0
100
AcDbLine
 10
254.231
 20
111.275
 30
0.0
 11
269.832
 21
111.275
 31
0.0
  0
LINE
  5
1E6
330
6F
100
AcDbEntity
  8
0
 62
     0
100
AcDbLine
 10
269.832
 20
111.275
 30
0.0
 11
269.832
 21
98.47470000000001
 31
0.0
  0
LINE
  5
1E7
330
6F
100
AcDbEntity
  8
0
 62
     0
100
AcDbLine
 10
269.832
 20
98.47470000000001
 30
0.0
 11
254.231
 21
98.47470000000001
 31
0.0
  0
LINE
  5
1E8
330
6F
100
AcDbEntity
  8
0
 62
     0
100
AcDbLine
 10
254.231
 20
98.47470000000001
 30
0.0
 11
254.231
 21
111.275
 31
0.0
  0
LINE
  5
1E9
330
6F
100
AcDbEntity
  8
0
 62
     0
100
AcDbLine
 10
273.281
 20
111.275
 30
0.0
 11
288.882
 21
111.275
 31
0.0
  0
LINE
  5
1EA
330
6F
100
AcDbEntity
  8
0
 62
     0
100
AcDbLine
 10
288.882
 20
111.275
 30
0.0
 11
288.882
 21
98.47470000000001
 31
0.0
  0
LINE
  5
1EB
330
6F
100
AcDbEntity
  8
0
 62
     0
100
AcDbLine
 10
288.882
 20
98.47470000000001
 30
0.0
 11
273.281
 21
98.47470000000001
 31
0.0
  0
LINE
  5
1EC
330
6F
100
AcDbEntity
  8
0
 62
     0
100
AcDbLine
 10
273.281
 20
98.47470000000001
 30
0.0
 11
273.281
 21
111.275
 31
0.0
  0
LINE
  5
1ED
330
6F
100
AcDbEntity
  8
0
 62
     0
100
AcDbLine
 10
292.331
 20
111.275
 30
0.0
 11
307.932
 21
111.275
 31
0.0
  0
LINE
  5
1EE
330
6F
100
AcDbEntity
  8
0
 62
     0
100
AcDbLine
 10
307.932
 20
111.275
 30
0.0
 11
307.932
 21
98.47470000000001
 31
0.0
  0
LINE
  5
1EF
330
6F
100
AcDbEntity
  8
0
 62
     0
100
AcDbLine
 10
307.932
 20
98.47470000000001
 30
0.0
 11
292.331
 21
98.47470000000001
 31
0.0
  0
LINE
  5
1F0
330
6F
100
AcDbEntity
  8
0
 62
     0
100
AcDbLine
 10
292.331
 20
98.47470000000001
 30
0.0
 11
292.331
 21
111.275
 31
0.0
  0
LINE
  5
1F1
330
6F
100
AcDbEntity
  8
0
 62
     0
100
AcDbLine
 10
316.145
 20
111.275
 30
0.0
 11
331.745
 21
111.275
 31
0.0
  0
LINE
  5
1F2
330
6F
100
AcDbEntity
  8
0
 62
     0
100
AcDbLine
 10
331.745
 20
111.275
 30
0.0
 11
331.745
 21
98.47470000000001
 31
0.0
  0
LINE
  5
1F3
330
6F
100
AcDbEntity
  8
0
 62
     0
100
AcDbLine
 10
331.745
 20
98.47470000000001
 30
0.0
 11
316.145
 21
98.47470000000001
 31
0.0
  0
LINE
  5
1F4
330
6F
100
AcDbEntity
  8
0
 62
     0
100
AcDbLine
 10
316.145
 20
98.47470000000001
 30
0.0
 11
316.145
 21
111.275
 31
0.0
  0
LINE
  5
1F5
330
6F
100
AcDbEntity
  8
0
 62
     0
100
AcDbLine
 10
339.956
 20
111.275
 30
0.0
 11
355.558
 21
111.275
 31
0.0
  0
LINE
  5
1F6
330
6F
100
AcDbEntity
  8
0
 62
     0
100
AcDbLine
 10
355.558
 20
111.275
 30
0.0
 11
355.558
 21
98.47470000000001
 31
0.0
  0
LINE
  5
1F7
330
6F
100
AcDbEntity
  8
0
 62
     0
100
AcDbLine
 10
355.558
 20
98.47470000000001
 30
0.0
 11
339.956
 21
98.47470000000001
 31
0.0
  0
LINE
  5
1F8
330
6F
100
AcDbEntity
  8
0
 62
     0
100
AcDbLine
 10
339.956
 20
98.47470000000001
 30
0.0
 11
339.956
 21
111.275
 31
0.0
  0
LINE
  5
1F9
330
6F
100
AcDbEntity
  8
0
 62
     0
100
AcDbLine
 10
301.856
 20
130.325
 30
0.0
 11
301.856
 21
117.525
 31
0.0
  0
LINE
  5
1FA
330
6F
100
AcDbEntity
  8
0
 62
     0
100
AcDbLine
 10
301.856
 20
117.525
 30
0.0
 11
303.753
 21
117.525
 31
0.0
  0
LINE
  5
1FE
330
6F
100
AcDbEntity
  8
0
 62
     0
100
AcDbLine
 10
306.419
 20
117.525
 30
0.0
 11
303.753
 21
117.525
 31
0.0
  0
LINE
  5
202
330
6F
100
AcDbEntity
  8
0
 62
     0
100
AcDbLine
 10
306.419
 20
117.525
 30
0.0
 11
336.5059999999998
 21
117.5229999999998
 31
0.0
  0
LINE
  5
207
330
6F
100
AcDbEntity
  8
0
 62
     0
100
AcDbLine
 10
336.5069999999999
 20
117.525
 30
0.0
 11
336.5069999999999
 21
130.325
 31
0.0
  0
LINE
  5
208
330
6F
100
AcDbEntity
  8
0
 62
     0
100
AcDbLine
 10
336.5069999999999
 20
130.325
 30
0.0
 11
301.856
 21
130.325
 31
0.0
  0
LINE
  5
209
330
6F
100
AcDbEntity
  8
0
 62
     0
100
AcDbLine
 10
1.82039
 20
130.325
 30
0.0
 11
17.4198
 21
130.325
 31
0.0
  0
LINE
  5
20A
330
6F
100
AcDbEntity
  8
0
 62
     0
100
AcDbLine
 10
17.4198
 20
130.325
 30
0.0
 11
17.4198
 21
117.525
 31
0.0
  0
LINE
  5
20B
330
6F
100
AcDbEntity
  8
0
 62
     0
100
AcDbLine
 10
17.4198
 20
117.525
 30
0.0
 11
1.82039
 21
117.525
 31
0.0
  0
LINE
  5
20C
330
6F
100
AcDbEntity
  8
0
 62
     0
100
AcDbLine
 10
1.82039
 20
117.525
 30
0.0
 11
1.82039
 21
130.325
 31
0.0
  0
LINE
  5
20D
330
6F
100
AcDbEntity
  8
0
 62
     0
100
AcDbLine
 10
20.8704
 20
130.325
 30
0.0
 11
36.4698
 21
130.325
 31
0.0
  0
LINE
  5
20E
330
6F
100
AcDbEntity
  8
0
 62
     0
100
AcDbLine
 10
36.4698
 20
130.325
 30
0.0
 11
36.4698
 21
117.525
 31
0.0
  0
LINE
  5
20F
330
6F
100
AcDbEntity
  8
0
 62
     0
100
AcDbLine
 10
36.4698
 20
117.525
 30
0.0
 11
20.8704
 21
117.525
 31
0.0
  0
LINE
  5
210
330
6F
100
AcDbEntity
  8
0
 62
     0
100
AcDbLine
 10
20.8704
 20
117.525
 30
0.0
 11
20.8704
 21
130.325
 31
0.0
  0
LINE
  5
211
330
6F
100
AcDbEntity
  8
0
 62
     0
100
AcDbLine
 10
39.9203
 20
130.325
 30
0.0
 11
55.5198
 21
130.325
 31
0.0
  0
LINE
  5
212
330
6F
100
AcDbEntity
  8
0
 62
     0
100
AcDbLine
 10
55.5198
 20
130.325
 30
0.0
 11
55.5198
 21
117.525
 31
0.0
  0
LINE
  5
213
330
6F
100
AcDbEntity
  8
0
 62
     0
100
AcDbLine
 10
55.5198
 20
117.525
 30
0.0
 11
39.9203
 21
117.525
 31
0.0
  0
LINE
  5
214
330
6F
100
AcDbEntity
  8
0
 62
     0
100
AcDbLine
 10
39.9203
 20
117.525
 30
0.0
 11
39.9203
 21
130.325
 31
0.0
  0
LINE
  5
215
330
6F
100
AcDbEntity
  8
0
 62
     0
100
AcDbLine
 10
58.9703
 20
130.325
 30
0.0
 11
74.5698
 21
130.325
 31
0.0
  0
LINE
  5
216
330
6F
100
AcDbEntity
  8
0
 62
     0
100
AcDbLine
 10
74.5698
 20
130.325
 30
0.0
 11
74.5698
 21
117.525
 31
0.0
  0
LINE
  5
217
330
6F
100
AcDbEntity
  8
0
 62
     0
100
AcDbLine
 10
74.5698
 20
117.525
 30
0.0
 11
58.9703
 21
117.525
 31
0.0
  0
LINE
  5
218
330
6F
100
AcDbEntity
  8
0
 62
     0
100
AcDbLine
 10
58.9703
 20
117.525
 30
0.0
 11
58.9703
 21
130.325
 31
0.0
  0
LINE
  5
219
330
6F
100
AcDbEntity
  8
0
 62
     0
100
AcDbLine
 10
78.02030000000001
 20
130.325
 30
0.0
 11
93.61839999999999
 21
130.325
 31
0.0
  0
LINE
  5
21A
330
6F
100
AcDbEntity
  8
0
 62
     0
100
AcDbLine
 10
93.61839999999999
 20
130.325
 30
0.0
 11
93.61839999999999
 21
117.525
 31
0.0
  0
LINE
  5
21B
330
6F
100
AcDbEntity
  8
0
 62
     0
100
AcDbLine
 10
93.61839999999999
 20
117.525
 30
0.0
 11
78.02030000000001
 21
117.525
 31
0.0
  0
LINE
  5
21C
330
6F
100
AcDbEntity
  8
0
 62
     0
100
AcDbLine
 10
78.02030000000001
 20
117.525
 30
0.0
 11
78.02030000000001
 21
130.325
 31
0.0
  0
LINE
  5
21D
330
6F
100
AcDbEntity
  8
0
 62
     0
100
AcDbLine
 10
97.07030000000001
 20
130.325
 30
0.0
 11
112.668
 21
130.325
 31
0.0
  0
LINE
  5
21E
330
6F
100
AcDbEntity
  8
0
 62
     0
100
AcDbLine
 10
112.668
 20
130.325
 30
0.0
 11
112.668
 21
117.525
 31
0.0
  0
LINE
  5
21F
330
6F
100
AcDbEntity
  8
0
 62
     0
100
AcDbLine
 10
112.668
 20
117.525
 30
0.0
 11
97.07030000000001
 21
117.525
 31
0.0
  0
LINE
  5
220
330
6F
100
AcDbEntity
  8
0
 62
     0
100
AcDbLine
 10
97.07030000000001
 20
117.525
 30
0.0
 11
97.07030000000001
 21
130.325
 31
0.0
  0
LINE
  5
221
330
6F
100
AcDbEntity
  8
0
 62
     0
100
AcDbLine
 10
116.119
 20
130.325
 30
0.0
 11
131.72
 21
130.325
 31
0.0
  0
LINE
  5
222
330
6F
100
AcDbEntity
  8
0
 62
     0
100
AcDbLine
 10
131.72
 20
130.325
 30
0.0
 11
131.72
 21
117.525
 31
0.0
  0
LINE
  5
223
330
6F
100
AcDbEntity
  8
0
 62
     0
100
AcDbLine
 10
131.72
 20
117.525
 30
0.0
 11
116.119
 21
117.525
 31
0.0
  0
LINE
  5
224
330
6F
100
AcDbEntity
  8
0
 62
     0
100
AcDbLine
 10
116.119
 20
117.525
 30
0.0
 11
116.119
 21
130.325
 31
0.0
  0
LINE
  5
225
330
6F
100
AcDbEntity
  8
0
 62
     0
100
AcDbLine
 10
187.556
 20
130.325
 30
0.0
 11
203.157
 21
130.325
 31
0.0
  0
LINE
  5
226
330
6F
100
AcDbEntity
  8
0
 62
     0
100
AcDbLine
 10
203.157
 20
130.325
 30
0.0
 11
203.157
 21
117.525
 31
0.0
  0
LINE
  5
227
330
6F
100
AcDbEntity
  8
0
 62
     0
100
AcDbLine
 10
203.157
 20
117.525
 30
0.0
 11
187.556
 21
117.525
 31
0.0
  0
LINE
  5
228
330
6F
100
AcDbEntity
  8
0
 62
     0
100
AcDbLine
 10
187.556
 20
117.525
 30
0.0
 11
187.556
 21
130.325
 31
0.0
  0
LINE
  5
229
330
6F
100
AcDbEntity
  8
0
 62
     0
100
AcDbLine
 10
206.606
 20
130.325
 30
0.0
 11
222.207
 21
130.325
 31
0.0
  0
LINE
  5
22A
330
6F
100
AcDbEntity
  8
0
 62
     0
100
AcDbLine
 10
222.207
 20
130.325
 30
0.0
 11
222.207
 21
117.525
 31
0.0
  0
LINE
  5
22B
330
6F
100
AcDbEntity
  8
0
 62
     0
100
AcDbLine
 10
222.207
 20
117.525
 30
0.0
 11
206.606
 21
117.525
 31
0.0
  0
LINE
  5
22C
330
6F
100
AcDbEntity
  8
0
 62
     0
100
AcDbLine
 10
206.606
 20
117.525
 30
0.0
 11
206.606
 21
130.325
 31
0.0
  0
LINE
  5
22D
330
6F
100
AcDbEntity
  8
0
 62
     0
100
AcDbLine
 10
225.656
 20
130.325
 30
0.0
 11
241.257
 21
130.325
 31
0.0
  0
LINE
  5
22E
330
6F
100
AcDbEntity
  8
0
 62
     0
100
AcDbLine
 10
241.257
 20
130.325
 30
0.0
 11
241.257
 21
117.525
 31
0.0
  0
LINE
  5
22F
330
6F
100
AcDbEntity
  8
0
 62
     0
100
AcDbLine
 10
241.257
 20
117.525
 30
0.0
 11
225.656
 21
117.525
 31
0.0
  0
LINE
  5
230
330
6F
100
AcDbEntity
  8
0
 62
     0
100
AcDbLine
 10
225.656
 20
117.525
 30
0.0
 11
225.656
 21
130.325
 31
0.0
  0
LINE
  5
231
330
6F
100
AcDbEntity
  8
0
 62
     0
100
AcDbLine
 10
244.706
 20
130.325
 30
0.0
 11
260.307
 21
130.325
 31
0.0
  0
LINE
  5
232
330
6F
100
AcDbEntity
  8
0
 62
     0
100
AcDbLine
 10
260.307
 20
130.325
 30
0.0
 11
260.307
 21
117.525
 31
0.0
  0
LINE
  5
233
330
6F
100
AcDbEntity
  8
0
 62
     0
100
AcDbLine
 10
260.307
 20
117.525
 30
0.0
 11
244.706
 21
117.525
 31
0.0
  0
LINE
  5
234
330
6F
100
AcDbEntity
  8
0
 62
     0
100
AcDbLine
 10
244.706
 20
117.525
 30
0.0
 11
244.706
 21
130.325
 31
0.0
  0
LINE
  5
235
330
6F
100
AcDbEntity
  8
0
 62
     0
100
AcDbLine
 10
263.756
 20
130.325
 30
0.0
 11
279.357
 21
130.325
 31
0.0
  0
LINE
  5
236
330
6F
100
AcDbEntity
  8
0
 62
     0
100
AcDbLine
 10
279.357
 20
130.325
 30
0.0
 11
279.357
 21
117.525
 31
0.0
  0
LINE
  5
237
330
6F
100
AcDbEntity
  8
0
 62
     0
100
AcDbLine
 10
279.357
 20
117.525
 30
0.0
 11
263.756
 21
117.525
 31
0.0
  0
LINE
  5
238
330
6F
100
AcDbEntity
  8
0
 62
     0
100
AcDbLine
 10
263.756
 20
117.525
 30
0.0
 11
263.756
 21
130.325
 31
0.0
  0
LINE
  5
239
330
6F
100
AcDbEntity
  8
0
 62
     0
100
AcDbLine
 10
282.806
 20
130.325
 30
0.0
 11
298.407
 21
130.325
 31
0.0
  0
LINE
  5
23A
330
6F
100
AcDbEntity
  8
0
 62
     0
100
AcDbLine
 10
298.407
 20
130.325
 30
0.0
 11
298.407
 21
117.525
 31
0.0
  0
LINE
  5
23B
330
6F
100
AcDbEntity
  8
0
 62
     0
100
AcDbLine
 10
298.407
 20
117.525
 30
0.0
 11
282.806
 21
117.525
 31
0.0
  0
LINE
  5
23C
330
6F
100
AcDbEntity
  8
0
 62
     0
100
AcDbLine
 10
282.806
 20
117.525
 30
0.0
 11
282.806
 21
130.325
 31
0.0
  0
LINE
  5
23D
330
6F
100
AcDbEntity
  8
0
 62
     0
100
AcDbLine
 10
339.956
 20
130.325
 30
0.0
 11
355.558
 21
130.325
 31
0.0
  0
LINE
  5
23E
330
6F
100
AcDbEntity
  8
0
 62
     0
100
AcDbLine
 10
355.558
 20
130.325
 30
0.0
 11
355.558
 21
117.525
 31
0.0
  0
LINE
  5
23F
330
6F
100
AcDbEntity
  8
0
 62
     0
100
AcDbLine
 10
355.558
 20
117.525
 30
0.0
 11
339.956
 21
117.525
 31
0.0
  0
LINE
  5
240
330
6F
100
AcDbEntity
  8
0
 62
     0
100
AcDbLine
 10
339.956
 20
117.525
 30
0.0
 11
339.956
 21
130.325
 31
0.0
  0
LINE
  5
241
330
6F
100
AcDbEntity
  8
0
 62
     0
100
AcDbLine
 10
1.82039
 20
149.375
 30
0.0
 11
17.4198
 21
149.375
 31
0.0
  0
LINE
  5
242
330
6F
100
AcDbEntity
  8
0
 62
     0
100
AcDbLine
 10
17.4198
 20
149.375
 30
0.0
 11
17.4198
 21
136.575
 31
0.0
  0
LINE
  5
243
330
6F
100
AcDbEntity
  8
0
 62
     0
100
AcDbLine
 10
17.4198
 20
136.575
 30
0.0
 11
1.82039
 21
136.575
 31
0.0
  0
LINE
  5
244
330
6F
100
AcDbEntity
  8
0
 62
     0
100
AcDbLine
 10
1.82039
 20
136.575
 30
0.0
 11
1.82039
 21
149.375
 31
0.0
  0
LINE
  5
245
330
6F
100
AcDbEntity
  8
0
 62
     0
100
AcDbLine
 10
20.8704
 20
149.375
 30
0.0
 11
36.4698
 21
149.375
 31
0.0
  0
LINE
  5
246
330
6F
100
AcDbEntity
  8
0
 62
     0
100
AcDbLine
 10
36.4698
 20
149.375
 30
0.0
 11
36.4698
 21
136.575
 31
0.0
  0
LINE
  5
247
330
6F
100
AcDbEntity
  8
0
 62
     0
100
AcDbLine
 10
36.4698
 20
136.575
 30
0.0
 11
20.8704
 21
136.575
 31
0.0
  0
LINE
  5
248
330
6F
100
AcDbEntity
  8
0
 62
     0
100
AcDbLine
 10
20.8704
 20
136.575
 30
0.0
 11
20.8704
 21
149.375
 31
0.0
  0
LINE
  5
249
330
6F
100
AcDbEntity
  8
0
 62
     0
100
AcDbLine
 10
39.9203
 20
149.375
 30
0.0
 11
55.5198
 21
149.375
 31
0.0
  0
LINE
  5
24A
330
6F
100
AcDbEntity
  8
0
 62
     0
100
AcDbLine
 10
55.5198
 20
149.375
 30
0.0
 11
55.5198
 21
136.575
 31
0.0
  0
LINE
  5
24B
330
6F
100
AcDbEntity
  8
0
 62
     0
100
AcDbLine
 10
55.5198
 20
136.575
 30
0.0
 11
39.9203
 21
136.575
 31
0.0
  0
LINE
  5
24C
330
6F
100
AcDbEntity
  8
0
 62
     0
100
AcDbLine
 10
39.9203
 20
136.575
 30
0.0
 11
39.9203
 21
149.375
 31
0.0
  0
LINE
  5
24D
330
6F
100
AcDbEntity
  8
0
 62
     0
100
AcDbLine
 10
58.9703
 20
149.375
 30
0.0
 11
74.5698
 21
149.375
 31
0.0
  0
LINE
  5
24E
330
6F
100
AcDbEntity
  8
0
 62
     0
100
AcDbLine
 10
74.5698
 20
149.375
 30
0.0
 11
74.5698
 21
136.575
 31
0.0
  0
LINE
  5
24F
330
6F
100
AcDbEntity
  8
0
 62
     0
100
AcDbLine
 10
74.5698
 20
136.575
 30
0.0
 11
58.9703
 21
136.575
 31
0.0
  0
LINE
  5
250
330
6F
100
AcDbEntity
  8
0
 62
     0
100
AcDbLine
 10
58.9703
 20
136.575
 30
0.0
 11
58.9703
 21
149.375
 31
0.0
  0
LINE
  5
251
330
6F
100
AcDbEntity
  8
0
 62
     0
100
AcDbLine
 10
78.02030000000001
 20
149.375
 30
0.0
 11
93.61839999999999
 21
149.375
 31
0.0
  0
LINE
  5
252
330
6F
100
AcDbEntity
  8
0
 62
     0
100
AcDbLine
 10
93.61839999999999
 20
149.375
 30
0.0
 11
93.61839999999999
 21
136.575
 31
0.0
  0
LINE
  5
253
330
6F
100
AcDbEntity
  8
0
 62
     0
100
AcDbLine
 10
93.61839999999999
 20
136.575
 30
0.0
 11
78.02030000000001
 21
136.575
 31
0.0
  0
LINE
  5
254
330
6F
100
AcDbEntity
  8
0
 62
     0
100
AcDbLine
 10
78.02030000000001
 20
136.575
 30
0.0
 11
78.02030000000001
 21
149.375
 31
0.0
  0
LINE
  5
255
330
6F
100
AcDbEntity
  8
0
 62
     0
100
AcDbLine
 10
97.07030000000001
 20
149.375
 30
0.0
 11
112.668
 21
149.375
 31
0.0
  0
LINE
  5
256
330
6F
100
AcDbEntity
  8
0
 62
     0
100
AcDbLine
 10
112.668
 20
149.375
 30
0.0
 11
112.668
 21
136.575
 31
0.0
  0
LINE
  5
257
330
6F
100
AcDbEntity
  8
0
 62
     0
100
AcDbLine
 10
112.668
 20
136.575
 30
0.0
 11
97.07030000000001
 21
136.575
 31
0.0
  0
LINE
  5
258
330
6F
100
AcDbEntity
  8
0
 62
     0
100
AcDbLine
 10
97.07030000000001
 20
136.575
 30
0.0
 11
97.07030000000001
 21
149.375
 31
0.0
  0
LINE
  5
259
330
6F
100
AcDbEntity
  8
0
 62
     0
100
AcDbLine
 10
116.119
 20
149.375
 30
0.0
 11
131.72
 21
149.375
 31
0.0
  0
LINE
  5
25A
330
6F
100
AcDbEntity
  8
0
 62
     0
100
AcDbLine
 10
131.72
 20
149.375
 30
0.0
 11
131.72
 21
136.575
 31
0.0
  0
LINE
  5
25B
330
6F
100
AcDbEntity
  8
0
 62
     0
100
AcDbLine
 10
131.72
 20
136.575
 30
0.0
 11
116.119
 21
136.575
 31
0.0
  0
LINE
  5
25C
330
6F
100
AcDbEntity
  8
0
 62
     0
100
AcDbLine
 10
116.119
 20
136.575
 30
0.0
 11
116.119
 21
149.375
 31
0.0
  0
LINE
  5
25D
330
6F
100
AcDbEntity
  8
0
 62
     0
100
AcDbLine
 10
187.556
 20
149.375
 30
0.0
 11
203.157
 21
149.375
 31
0.0
  0
LINE
  5
25E
330
6F
100
AcDbEntity
  8
0
 62
     0
100
AcDbLine
 10
203.157
 20
149.375
 30
0.0
 11
203.157
 21
136.575
 31
0.0
  0
LINE
  5
25F
330
6F
100
AcDbEntity
  8
0
 62
     0
100
AcDbLine
 10
203.157
 20
136.575
 30
0.0
 11
187.556
 21
136.575
 31
0.0
  0
LINE
  5
260
330
6F
100
AcDbEntity
  8
0
 62
     0
100
AcDbLine
 10
187.556
 20
136.575
 30
0.0
 11
187.556
 21
149.375
 31
0.0
  0
LINE
  5
261
330
6F
100
AcDbEntity
  8
0
 62
     0
100
AcDbLine
 10
206.606
 20
149.375
 30
0.0
 11
222.207
 21
149.375
 31
0.0
  0
LINE
  5
262
330
6F
100
AcDbEntity
  8
0
 62
     0
100
AcDbLine
 10
222.207
 20
149.375
 30
0.0
 11
222.207
 21
136.575
 31
0.0
  0
LINE
  5
263
330
6F
100
AcDbEntity
  8
0
 62
     0
100
AcDbLine
 10
222.207
 20
136.575
 30
0.0
 11
206.606
 21
136.575
 31
0.0
  0
LINE
  5
264
330
6F
100
AcDbEntity
  8
0
 62
     0
100
AcDbLine
 10
206.606
 20
136.575
 30
0.0
 11
206.606
 21
149.375
 31
0.0
  0
LINE
  5
265
330
6F
100
AcDbEntity
  8
0
 62
     0
100
AcDbLine
 10
225.656
 20
149.375
 30
0.0
 11
241.257
 21
149.375
 31
0.0
  0
LINE
  5
266
330
6F
100
AcDbEntity
  8
0
 62
     0
100
AcDbLine
 10
241.257
 20
149.375
 30
0.0
 11
241.257
 21
136.575
 31
0.0
  0
LINE
  5
267
330
6F
100
AcDbEntity
  8
0
 62
     0
100
AcDbLine
 10
241.257
 20
136.575
 30
0.0
 11
225.656
 21
136.575
 31
0.0
  0
LINE
  5
268
330
6F
100
AcDbEntity
  8
0
 62
     0
100
AcDbLine
 10
225.656
 20
136.575
 30
0.0
 11
225.656
 21
149.375
 31
0.0
  0
LINE
  5
269
330
6F
100
AcDbEntity
  8
0
 62
     0
100
AcDbLine
 10
244.706
 20
149.375
 30
0.0
 11
260.307
 21
149.375
 31
0.0
  0
LINE
  5
26A
330
6F
100
AcDbEntity
  8
0
 62
     0
100
AcDbLine
 10
260.307
 20
149.375
 30
0.0
 11
260.307
 21
136.575
 31
0.0
  0
LINE
  5
26B
330
6F
100
AcDbEntity
  8
0
 62
     0
100
AcDbLine
 10
260.307
 20
136.575
 30
0.0
 11
244.706
 21
136.575
 31
0.0
  0
LINE
  5
26C
330
6F
100
AcDbEntity
  8
0
 62
     0
100
AcDbLine
 10
244.706
 20
136.575
 30
0.0
 11
244.706
 21
149.375
 31
0.0
  0
LINE
  5
26D
330
6F
100
AcDbEntity
  8
0
 62
     0
100
AcDbLine
 10
263.756
 20
149.375
 30
0.0
 11
279.357
 21
149.375
 31
0.0
  0
LINE
  5
26E
330
6F
100
AcDbEntity
  8
0
 62
     0
100
AcDbLine
 10
279.357
 20
149.375
 30
0.0
 11
279.357
 21
136.575
 31
0.0
  0
LINE
  5
26F
330
6F
100
AcDbEntity
  8
0
 62
     0
100
AcDbLine
 10
279.357
 20
136.575
 30
0.0
 11
263.756
 21
136.575
 31
0.0
  0
LINE
  5
270
330
6F
100
AcDbEntity
  8
0
 62
     0
100
AcDbLine
 10
263.756
 20
136.575
 30
0.0
 11
263.756
 21
149.375
 31
0.0
  0
LINE
  5
271
330
6F
100
AcDbEntity
  8
0
 62
     0
100
AcDbLine
 10
282.806
 20
149.375
 30
0.0
 11
298.407
 21
149.375
 31
0.0
  0
LINE
  5
272
330
6F
100
AcDbEntity
  8
0
 62
     0
100
AcDbLine
 10
298.407
 20
149.375
 30
0.0
 11
298.407
 21
136.575
 31
0.0
  0
LINE
  5
273
330
6F
100
AcDbEntity
  8
0
 62
     0
100
AcDbLine
 10
298.407
 20
136.575
 30
0.0
 11
282.806
 21
136.575
 31
0.0
  0
LINE
  5
274
330
6F
100
AcDbEntity
  8
0
 62
     0
100
AcDbLine
 10
282.806
 20
136.575
 30
0.0
 11
282.806
 21
149.375
 31
0.0
  0
LINE
  5
275
330
6F
100
AcDbEntity
  8
0
 62
     0
100
AcDbLine
 10
301.856
 20
149.375
 30
0.0
 11
317.457
 21
149.375
 31
0.0
  0
LINE
  5
276
330
6F
100
AcDbEntity
  8
0
 62
     0
100
AcDbLine
 10
317.457
 20
149.375
 30
0.0
 11
317.457
 21
136.575
 31
0.0
  0
LINE
  5
277
330
6F
100
AcDbEntity
  8
0
 62
     0
100
AcDbLine
 10
317.457
 20
136.575
 30
0.0
 11
301.856
 21
136.575
 31
0.0
  0
LINE
  5
278
330
6F
100
AcDbEntity
  8
0
 62
     0
100
AcDbLine
 10
301.856
 20
136.575
 30
0.0
 11
301.856
 21
149.375
 31
0.0
  0
LINE
  5
279
330
6F
100
AcDbEntity
  8
0
 62
     0
100
AcDbLine
 10
320.906
 20
149.375
 30
0.0
 11
336.5069999999999
 21
149.375
 31
0.0
  0
LINE
  5
27A
330
6F
100
AcDbEntity
  8
0
 62
     0
100
AcDbLine
 10
336.5069999999999
 20
149.375
 30
0.0
 11
336.5069999999999
 21
136.575
 31
0.0
  0
LINE
  5
27B
330
6F
100
AcDbEntity
  8
0
 62
     0
100
AcDbLine
 10
336.5069999999999
 20
136.575
 30
0.0
 11
320.906
 21
136.575
 31
0.0
  0
LINE
  5
27C
330
6F
100
AcDbEntity
  8
0
 62
     0
100
AcDbLine
 10
320.906
 20
136.575
 30
0.0
 11
320.906
 21
149.375
 31
0.0
  0
LINE
  5
27D
330
6F
100
AcDbEntity
  8
0
 62
     0
100
AcDbLine
 10
339.956
 20
149.375
 30
0.0
 11
355.558
 21
149.375
 31
0.0
  0
LINE
  5
27E
330
6F
100
AcDbEntity
  8
0
 62
     0
100
AcDbLine
 10
355.558
 20
149.375
 30
0.0
 11
355.558
 21
136.575
 31
0.0
  0
LINE
  5
27F
330
6F
100
AcDbEntity
  8
0
 62
     0
100
AcDbLine
 10
355.558
 20
136.575
 30
0.0
 11
339.956
 21
136.575
 31
0.0
  0
LINE
  5
280
330
6F
100
AcDbEntity
  8
0
 62
     0
100
AcDbLine
 10
339.956
 20
136.575
 30
0.0
 11
339.956
 21
149.375
 31
0.0
  0
LINE
  5
985
330
6F
100
AcDbEntity
  8
0
  6
Continuous
 62
     7
420
 16777215
100
AcDbLine
 10
185.8310000000001
 20
114.1485000262519
 30
0.0
 11
185.8310000000001
 21
159.975
 31
0.0
  0
LINE
  5
986
330
6F
100
AcDbEntity
  8
0
  6
Continuous
 62
     7
420
 16777215
100
AcDbLine
 10
176.3054999999973
 20
95.59849999999988
 30
0.0
 11
176.3055
 21
114.1485000262519
 31
0.0
  0
LINE
  5
987
330
6F
100
AcDbEntity
  8
0
  6
Continuous
 62
     7
420
 16777215
100
AcDbLine
 10
181.0675000000001
 20
76.04849999999993
 30
0.0
 11
181.0675
 21
95.59849999999988
 31
0.0
  0
LINE
  5
988
330
6F
100
AcDbEntity
  8
0
  6
Continuous
 62
     7
420
 16777215
100
AcDbLine
 10
171.5425000000001
 20
57.49949999999995
 30
0.0
 11
171.5424999999999
 21
76.04849999999993
 31
0.0
  0
CIRCLE
  5
989
330
6F
100
AcDbEntity
  8
0
  6
Continuous
 62
     7
420
 16777215
100
AcDbCircle
 10
193.7940000000001
 20
156.2371462
 30
0.0
 40
1.5
  0
CIRCLE
  5
98A
330
6F
100
AcDbEntity
  8
0
  6
Continuous
 62
     7
420
 16777215
100
AcDbCircle
 10
193.7940000000001
 20
34.46030120000006
 30
0.0
 40
1.5
  0
CIRCLE
  5
98B
330
6F
100
AcDbEntity
  8
0
  6
Continuous
 62
     7
420
 16777215
100
AcDbCircle
 10
274.055711101357
 20
156.2371462
 30
0.0
 40
1.5
  0
CIRCLE
  5
98C
330
6F
100
AcDbEntity
  8
0
  6
Continuous
 62
     7
420
 16777215
100
AcDbCircle
 10
274.055711101357
 20
34.46030120000006
 30
0.0
 40
1.5
  0
CIRCLE
  5
98D
330
6F
100
AcDbEntity
  8
0
  6
Continuous
 62
     7
420
 16777215
100
AcDbCircle
 10
361.0184999999999
 20
156.2371462
 30
0.0
 40
1.5
  0
CIRCLE
  5
98E
330
6F
100
AcDbEntity
  8
0
  6
Continuous
 62
     7
420
 16777215
100
AcDbCircle
 10
361.0184999999999
 20
95.34870710000001
 30
0.0
 40
1.5
  0
CIRCLE
  5
98F
330
6F
100
AcDbEntity
  8
0
  6
Continuous
 62
     7
420
 16777215
100
AcDbCircle
 10
361.0184999999999
 20
34.46030120000006
 30
0.0
 40
1.5
  0
LINE
  5
9FC
330
6F
100
AcDbEntity
  8
0
  6
Continuous
 62
     7
420
 16777215
100
AcDbLine
 10
364.7559999999998
 20
159.975
 30
0.0
 11
185.8310000000001
 21
159.9750000000001
 31
0.0
  0
LINE
  5
9FD
330
6F
100
AcDbEntity
  8
0
  6
Continuous
 62
     7
420
 16777215
100
AcDbLine
 10
181.0660500000006
 20
30.72300000000002
 30
0.0
 11
364.7559999999998
 21
30.72300000000002
 31
0.0
  0
LINE
  5
9FE
330
6F
100
AcDbEntity
  8
0
  6
Continuous
 62
     7
420
 16777215
100
AcDbLine
 10
364.7559999999998
 20
159.975
 30
0.0
 11
364.7559999999996
 21
30.72300000000002
 31
0.0
  0
LINE
  5
A03
330
6F
100
AcDbEntity
  8
0
  6
Continuous
 62
     7
420
 16777215
100
AcDbLine
 10
181.0660500000006
 20
57.49949999999995
 30
0.0
 11
181.0660500000006
 21
30.72300000000002
 31
0.0
  0
LINE
  5
A04
330
6F
100
AcDbEntity
  8
0
  6
Continuous
 62
     7
420
 16777215
100
AcDbLine
 10
176.3055
 20
114.1485000262519
 30
0.0
 11
185.8310000000001
 21
114.1485000262519
 31
0.0
  0
LINE
  5
A05
330
6F
100
AcDbEntity
  8
0
  6
Continuous
 62
     7
420
 16777215
100
AcDbLine
 10
176.3054999999973
 20
95.59849999999988
 30
0.0
 11
181.0675
 21
95.59849999999988
 31
0.0
  0
LINE
  5
A06
330
6F
100
AcDbEntity
  8
0
  6
Continuous
 62
     7
420
 16777215
100
AcDbLine
 10
171.5425000000001
 20
76.04849999999993
 30
0.0
 11
181.0675000000001
 21
76.04849999999993
 31
0.0
  0
LINE
  5
A07
330
6F
100
AcDbEntity
  8
0
  6
Continuous
 62
     7
100
AcDbLine
 10
171.5425000000001
 20
57.49949999999995
 30
0.0
 11
181.0660500000006
 21
57.49949999999995
 31
0.0
  0
LINE
  5
B2B
102
{ACAD_REACTORS
330
C16
102
}
330
6F
100
AcDbEntity
  8
0
  6
Continuous
 62
     7
100
AcDbLine
 10
133.4464899999999
 20
114.3979999009901
 30
0.0
 11
133.44649
 21
159.9750000000001
 31
0.0
  0
LINE
  5
B2C
102
{ACAD_REACTORS
330
C16
102
}
330
6F
100
AcDbEntity
  8
0
  6
Continuous
 62
     7
100
AcDbLine
 10
123.92099
 20
95.3485
 30
0.0
 11
123.92099
 21
114.3985000262519
 31
0.0
  0
LINE
  5
B2D
102
{ACAD_REACTORS
330
C16
102
}
330
6F
100
AcDbEntity
  8
0
  6
Continuous
 62
     7
100
AcDbLine
 10
128.68299
 20
76.29850000000004
 30
0.0
 11
128.6829899999999
 21
95.3485
 31
0.0
  0
LINE
  5
B2E
102
{ACAD_REACTORS
330
C16
102
}
330
6F
100
AcDbEntity
  8
0
  6
Continuous
 62
     7
100
AcDbLine
 10
119.15799
 20
57.24949999999996
 30
0.0
 11
119.15799
 21
76.29849999999994
 31
0.0
  0
LINE
  5
B30
102
{ACAD_REACTORS
330
C16
102
}
330
6F
100
AcDbEntity
  8
0
  6
Continuous
 62
     7
100
AcDbLine
 10
123.92099
 20
95.3485
 30
0.0
 11
128.68299
 21
95.3485
 31
0.0
  0
LINE
  5
B31
102
{ACAD_REACTORS
330
C16
102
}
330
6F
100
AcDbEntity
  8
0
  6
Continuous
 62
     7
100
AcDbLine
 10
128.68299
 20
76.29849999999994
 30
0.0
 11
119.15799
 21
76.29849999999994
 31
0.0
  0
LINE
  5
B32
102
{ACAD_REACTORS
330
C16
102
}
330
6F
100
AcDbEntity
  8
0
  6
Continuous
 62
     7
100
AcDbLine
 10
119.15799
 20
57.24949999999996
 30
0.0
 11
128.6815400000006
 21
57.24949999999996
 31
0.0
  0
CIRCLE
  5
B33
102
{ACAD_REACTORS
330
C16
102
}
330
6F
100
AcDbEntity
  8
0
  6
Continuous
 62
     7
100
AcDbCircle
 10
-3.642990000000029
 20
156.2371462
 30
0.0
 40
1.5
  0
CIRCLE
  5
B34
102
{ACAD_REACTORS
330
C16
102
}
330
6F
100
AcDbEntity
  8
0
  6
Continuous
 62
     7
100
AcDbCircle
 10
125.4834899999999
 20
156.2371462
 30
0.0
 40
1.5
  0
CIRCLE
  5
B35
102
{ACAD_REACTORS
330
C16
102
}
330
6F
100
AcDbEntity
  8
0
  6
Continuous
 62
     7
100
AcDbCircle
 10
82.16559813124737
 20
156.2371461999999
 30
0.0
 40
1.5
  0
CIRCLE
  5
B36
102
{ACAD_REACTORS
330
C16
102
}
330
6F
100
AcDbEntity
  8
0
  6
Continuous
 62
     7
100
AcDbCircle
 10
-3.642990000000029
 20
34.4603012
 30
0.0
 40
1.5
  0
CIRCLE
  5
B37
102
{ACAD_REACTORS
330
C16
102
}
330
6F
100
AcDbEntity
  8
0
  6
Continuous
 62
     7
100
AcDbCircle
 10
64.27103230000003
 20
34.4603012
 30
0.0
 40
1.5
  0
CIRCLE
  5
B38
102
{ACAD_REACTORS
330
C16
102
}
330
6F
100
AcDbEntity
  8
0
  6
Continuous
 62
     7
100
AcDbCircle
 10
124.1877500107406
 20
34.46030120000012
 30
0.0
 40
1.5
  0
CIRCLE
  5
B39
102
{ACAD_REACTORS
330
C16
102
}
330
6F
100
AcDbEntity
  8
0
  6
Continuous
 62
     7
100
AcDbCircle
 10
-3.642990000000029
 20
95.34870710000001
 30
0.0
 40
1.5
  0
LINE
  5
BCB
102
{ACAD_REACTORS
330
C16
102
}
330
6F
100
AcDbEntity
  8
0
  6
Continuous
 62
     7
100
AcDbLine
 10
133.44649
 20
159.9750000000001
 30
0.0
 11
-7.380320000000015
 21
159.9750000000001
 31
0.0
  0
LINE
  5
BCD
102
{ACAD_REACTORS
330
C16
102
}
330
6F
100
AcDbEntity
  8
0
  6
Continuous
 62
     7
100
AcDbLine
 10
-7.380320000000015
 20
159.975
 30
0.0
 11
-7.380320000000015
 21
30.72299999999996
 31
0.0
  0
LINE
  5
C15
102
{ACAD_REACTORS
330
C16
102
}
330
6F
100
AcDbEntity
  8
0
  6
Continuous
 62
     7
100
AcDbLine
 10
128.6815400000006
 20
57.24949999999996
 30
0.0
 11
128.6815400000006
 21
30.72300000000002
 31
0.0
  0
LINE
  5
104F
330
6F
100
AcDbEntity
  8
0
  6
Continuous
100
AcDbLine
 10
25.6315
 20
54.1253
 30
0.0
 11
43.61224000000092
 21
54.1253
 31
0.0
  0
LINE
  5
1050
330
6F
100
AcDbEntity
  8
0
  6
Continuous
100
AcDbLine
 10
25.6315
 20
41.3247
 30
0.0
 11
43.61224000000092
 21
41.32459999999994
 31
0.0
  0
LINE
  5
1051
330
6F
100
AcDbEntity
  8
0
  6
Continuous
100
AcDbLine
 10
49.4453
 20
54.1253
 30
0.0
 11
67.4261400000008
 21
54.12519999999995
 31
0.0
  0
LINE
  5
1052
330
6F
100
AcDbEntity
  8
0
  6
Continuous
100
AcDbLine
 10
49.4453
 20
41.3247
 30
0.0
 11
67.4261400000008
 21
41.32459999999994
 31
0.0
  0
LINE
  5
1053
330
6F
100
AcDbEntity
  8
0
  6
Continuous
100
AcDbLine
 10
43.61224000000092
 20
54.1253
 30
0.0
 11
43.61224000000092
 21
41.32459999999994
 31
0.0
  0
LINE
  5
1054
330
6F
100
AcDbEntity
  8
0
  6
Continuous
100
AcDbLine
 10
67.4261400000008
 20
54.12519999999995
 30
0.0
 11
67.4261400000008
 21
41.32459999999994
 31
0.0
  0
LINE
  5
1055
330
6F
100
AcDbEntity
  8
0
  6
Continuous
100
AcDbLine
 10
123.92099
 20
114.3985000262519
 30
0.0
 11
133.4464899999999
 21
114.3979999009901
 31
0.0
  0
LINE
  5
1479
330
6F
100
AcDbEntity
  8
0
  6
Continuous
100
AcDbLine
 10
4.200320000000971
 20
54.12519999999997
 30
0.0
 11
4.200320000000971
 21
41.32481918964409
 31
0.0
  0
LINE
  5
147A
330
6F
100
AcDbEntity
  8
0
  6
Continuous
100
AcDbLine
 10
4.200320000000971
 20
41.32481918964409
 30
0.0
 11
22.18234000000294
 21
41.32601000000002
 31
0.0
  0
LINE
  5
147B
330
6F
100
AcDbEntity
  8
0
  6
Continuous
100
AcDbLine
 10
22.18234000000294
 20
41.32601000000002
 30
0.0
 11
22.18234000000294
 21
54.12660000000002
 31
0.0
  0
LINE
  5
147C
330
6F
100
AcDbEntity
  8
0
  6
Continuous
100
AcDbLine
 10
22.18234000000294
 20
54.12660000000002
 30
0.0
 11
4.200320000000971
 21
54.12519999999997
 31
0.0
  0
LINE
  5
147D
330
6F
100
AcDbEntity
  8
0
  6
Continuous
100
AcDbLine
 10
-7.380320000000015
 20
30.72299999999996
 30
0.0
 11
128.6815400000006
 21
30.72299999999995
 31
0.0
  0
LINE
  5
148E
330
6F
100
AcDbEntity
  8
0
 62
     0
100
AcDbLine
 10
36.95484000000002
 20
70.64799999999998
 30
0.0
 11
36.95484000000002
 21
75.86129999999998
 31
0.0
  0
LINE
  5
148F
330
6F
100
AcDbEntity
  8
0
 62
     0
100
AcDbLine
 10
36.95484000000002
 20
75.86129999999998
 30
0.0
 11
34.28837000000001
 21
75.85429999999998
 31
0.0
  0
LINE
  5
1490
330
6F
100
AcDbEntity
  8
0
 62
     0
100
AcDbLine
 10
34.28837000000001
 20
75.85429999999998
 30
0.0
 11
34.28837000000001
 21
70.64799999999998
 31
0.0
  0
LINE
  5
1491
330
6F
100
AcDbEntity
  8
0
 62
     0
100
AcDbLine
 10
34.28837000000001
 20
70.64799999999998
 30
0.0
 11
36.95484000000002
 21
70.64799999999998
 31
0.0
  0
LINE
  5
1492
330
6F
100
AcDbEntity
  8
0
 62
     0
100
AcDbLine
 10
8.763000000000005
 20
70.64799999999998
 30
0.0
 11
6.096400000000002
 21
70.64799999999998
 31
0.0
  0
LINE
  5
1493
330
6F
100
AcDbEntity
  8
0
 62
     0
100
AcDbLine
 10
6.096400000000002
 20
70.64799999999998
 30
0.0
 11
6.096400000000002
 21
75.85429999999998
 31
0.0
  0
LINE
  5
1494
330
6F
100
AcDbEntity
  8
0
 62
     0
100
AcDbLine
 10
6.096400000000002
 20
75.85429999999998
 30
0.0
 11
8.763000000000005
 21
75.85429999999998
 31
0.0
  0
LINE
  5
1495
330
6F
100
AcDbEntity
  8
0
 62
     0
100
AcDbLine
 10
8.763000000000005
 20
75.85429999999998
 30
0.0
 11
8.763000000000005
 21
70.64799999999998
 31
0.0
  0
LINE
  5
16BD
330
6F
100
AcDbEntity
  8
0
 62
     0
100
AcDbLine
 10
106.0111
 20
51.598
 30
0.0
 11
106.0111
 21
56.81130000000001
 31
0.0
  0
LINE
  5
16BE
330
6F
100
AcDbEntity
  8
0
 62
     0
100
AcDbLine
 10
106.0111
 20
56.81130000000001
 30
0.0
 11
103.3445
 21
56.80430000000001
 31
0.0
  0
LINE
  5
16BF
330
6F
100
AcDbEntity
  8
0
 62
     0
100
AcDbLine
 10
103.3445
 20
56.80430000000001
 30
0.0
 11
103.3445
 21
51.598
 31
0.0
  0
LINE
  5
16C0
330
6F
100
AcDbEntity
  8
0
 62
     0
100
AcDbLine
 10
103.3445
 20
51.598
 30
0.0
 11
106.0111
 21
51.598
 31
0.0
  0
LINE
  5
16C1
330
6F
100
AcDbEntity
  8
0
 62
     0
100
AcDbLine
 10
77.81970000000001
 20
51.598
 30
0.0
 11
75.15269999999998
 21
51.598
 31
0.0
  0
LINE
  5
16C2
330
6F
100
AcDbEntity
  8
0
 62
     0
100
AcDbLine
 10
75.15269999999998
 20
51.598
 30
0.0
 11
75.15269999999998
 21
56.80430000000001
 31
0.0
  0
LINE
  5
16C3
330
6F
100
AcDbEntity
  8
0
 62
     0
100
AcDbLine
 10
75.15269999999998
 20
56.80430000000001
 30
0.0
 11
77.81970000000001
 21
56.80430000000001
 31
0.0
  0
LINE
  5
16C4
330
6F
100
AcDbEntity
  8
0
 62
     0
100
AcDbLine
 10
77.81970000000001
 20
56.80430000000001
 30
0.0
 11
77.81970000000001
 21
51.598
 31
0.0
  0
LINE
  5
16D8
330
6F
100
AcDbEntity
  8
0
  6
Continuous
100
AcDbLine
 10
237.5620000000005
 20
54.1252
 30
0.0
 11
255.5440000000003
 21
54.1252
 31
0.0
  0
LINE
  5
16D9
330
6F
100
AcDbEntity
  8
0
  6
Continuous
100
AcDbLine
 10
237.5620000000005
 20
41.32460000000008
 30
0.0
 11
255.545
 21
41.32535463701159
 31
0.0
  0
LINE
  5
16DA
330
6F
100
AcDbEntity
  8
0
  6
Continuous
100
AcDbLine
 10
258.9940000000005
 20
54.1252
 30
0.0
 11
258.9940000000005
 21
41.32460000000008
 31
0.0
  0
LINE
  5
16DB
330
6F
100
AcDbEntity
  8
0
  6
Continuous
100
AcDbLine
 10
255.5440000000003
 20
54.1252
 30
0.0
 11
255.5440000000003
 21
41.32535459504768
 31
0.0
  0
LINE
  5
16DC
330
6F
100
AcDbEntity
  8
0
  6
Continuous
100
AcDbLine
 10
296.0250000000023
 20
54.1252
 30
0.0
 11
296.0250000000023
 21
41.32460000000008
 31
0.0
  0
LINE
  5
16DD
330
6F
100
AcDbEntity
  8
0
  6
Continuous
100
AcDbLine
 10
237.5620000000005
 20
54.1252
 30
0.0
 11
237.5620000000005
 21
41.32460000000008
 31
0.0
  0
LINE
  5
16EE
330
6F
100
AcDbEntity
  8
0
 62
     0
100
AcDbLine
 10
222.691
 20
51.598
 30
0.0
 11
222.691
 21
56.8113
 31
0.0
  0
LINE
  5
16EF
330
6F
100
AcDbEntity
  8
0
 62
     0
100
AcDbLine
 10
222.691
 20
56.8113
 30
0.0
 11
220.026
 21
56.80430000000001
 31
0.0
  0
LINE
  5
16F0
330
6F
100
AcDbEntity
  8
0
 62
     0
100
AcDbLine
 10
220.026
 20
56.80430000000001
 30
0.0
 11
220.026
 21
51.598
 31
0.0
  0
LINE
  5
16F1
330
6F
100
AcDbEntity
  8
0
 62
     0
100
AcDbLine
 10
220.026
 20
51.598
 30
0.0
 11
222.691
 21
51.598
 31
0.0
  0
LINE
  5
16F2
330
6F
100
AcDbEntity
  8
0
 62
     0
100
AcDbLine
 10
194.499
 20
51.598
 30
0.0
 11
191.833
 21
51.598
 31
0.0
  0
LINE
  5
16F3
330
6F
100
AcDbEntity
  8
0
 62
     0
100
AcDbLine
 10
191.833
 20
51.598
 30
0.0
 11
191.833
 21
56.80430000000001
 31
0.0
  0
LINE
  5
16F4
330
6F
100
AcDbEntity
  8
0
 62
     0
100
AcDbLine
 10
191.833
 20
56.80430000000001
 30
0.0
 11
194.499
 21
56.80430000000001
 31
0.0
  0
LINE
  5
16F5
330
6F
100
AcDbEntity
  8
0
 62
     0
100
AcDbLine
 10
194.499
 20
56.80430000000001
 30
0.0
 11
194.499
 21
51.598
 31
0.0
  0
LINE
  5
1722
330
6F
100
AcDbEntity
  8
0
 62
     0
100
AcDbLine
 10
332.23
 20
89.69799999999997
 30
0.0
 11
332.23
 21
94.91130000000001
 31
0.0
  0
LINE
  5
1723
330
6F
100
AcDbEntity
  8
0
 62
     0
100
AcDbLine
 10
332.23
 20
94.91130000000001
 30
0.0
 11
329.563
 21
94.90569999999999
 31
0.0
  0
LINE
  5
1724
330
6F
100
AcDbEntity
  8
0
 62
     0
100
AcDbLine
 10
329.563
 20
94.90569999999999
 30
0.0
 11
329.563
 21
89.69799999999997
 31
0.0
  0
LINE
  5
1725
330
6F
100
AcDbEntity
  8
0
 62
     0
100
AcDbLine
 10
329.563
 20
89.69799999999997
 30
0.0
 11
332.23
 21
89.69799999999997
 31
0.0
  0
LINE
  5
1726
330
6F
100
AcDbEntity
  8
0
 62
     0
100
AcDbLine
 10
304.0379999999999
 20
89.69799999999997
 30
0.0
 11
301.371
 21
89.69799999999997
 31
0.0
  0
LINE
  5
1727
330
6F
100
AcDbEntity
  8
0
 62
     0
100
AcDbLine
 10
301.371
 20
89.69799999999997
 30
0.0
 11
301.371
 21
94.90569999999999
 31
0.0
  0
LINE
  5
1728
330
6F
100
AcDbEntity
  8
0
 62
     0
100
AcDbLine
 10
301.371
 20
94.90569999999999
 30
0.0
 11
304.0379999999999
 21
94.90569999999999
 31
0.0
  0
LINE
  5
1729
330
6F
100
AcDbEntity
  8
0
 62
     0
100
AcDbLine
 10
304.0379999999999
 20
94.90569999999999
 30
0.0
 11
304.0379999999999
 21
89.69799999999997
 31
0.0
  0
LINE
  5
174D
330
6F
100
AcDbEntity
  8
0
 62
     0
100
AcDbLine
 10
315.783
 20
70.64799999999998
 30
0.0
 11
315.783
 21
75.86129999999998
 31
0.0
  0
LINE
  5
174E
330
6F
100
AcDbEntity
  8
0
 62
     0
100
AcDbLine
 10
315.783
 20
75.86129999999998
 30
0.0
 11
313.118
 21
75.85429999999998
 31
0.0
  0
LINE
  5
174F
330
6F
100
AcDbEntity
  8
0
 62
     0
100
AcDbLine
 10
313.118
 20
75.85429999999998
 30
0.0
 11
313.118
 21
70.64799999999998
 31
0.0
  0
LINE
  5
1750
330
6F
100
AcDbEntity
  8
0
 62
     0
100
AcDbLine
 10
313.118
 20
70.64799999999998
 30
0.0
 11
315.783
 21
70.64799999999998
 31
0.0
  0
LINE
  5
1751
330
6F
100
AcDbEntity
  8
0
 62
     0
100
AcDbLine
 10
291.907
 20
70.64799999999999
 30
0.0
 11
289.241
 21
70.64799999999999
 31
0.0
  0
LINE
  5
1752
330
6F
100
AcDbEntity
  8
0
 62
     0
100
AcDbLine
 10
289.241
 20
70.64799999999999
 30
0.0
 11
289.241
 21
75.85429999999998
 31
0.0
  0
LINE
  5
1753
330
6F
100
AcDbEntity
  8
0
 62
     0
100
AcDbLine
 10
289.241
 20
75.85429999999998
 30
0.0
 11
291.907
 21
75.85429999999998
 31
0.0
  0
LINE
  5
1754
330
6F
100
AcDbEntity
  8
0
 62
     0
100
AcDbLine
 10
291.907
 20
75.85429999999998
 30
0.0
 11
291.907
 21
70.64799999999999
 31
0.0
  0
CIRCLE
  5
1B34
330
6F
100
AcDbEntity
  8
0
  6
Continuous
 62
     7
420
 16777215
100
AcDbCircle
 10
44.22154944737084
 20
156.2371461999999
 30
0.0
 40
1.5
  0
CIRCLE
  5
1B3A
330
6F
100
AcDbEntity
  8
0
  6
Continuous
 62
     7
420
 16777215
100
AcDbCircle
 10
238.1334999999997
 20
156.2371462000001
 30
0.0
 40
1.5
  0
ENDSEC
  0
SECTION
  2
OBJECTS
  0
DICTIONARY
  5
C
330
0
100
AcDbDictionary
281
     1
  3
ACAD_CIP_PREVIOUS_PRODUCT_INFO
350
282
  3
ACAD_COLOR
350
62
  3
ACAD_DETAILVIEWSTYLE
350
69
  3
ACAD_GROUP
350
D
  3
ACAD_LAYOUT
350
61
  3
ACAD_MATERIAL
350
10
  3
ACAD_MLEADERSTYLE
350
65
  3
ACAD_MLINESTYLE
350
5E
  3
ACAD_PLOTSETTINGS
350
60
  3
ACAD_PLOTSTYLENAME
350
E
  3
ACAD_SCALELIST
350
42
  3
ACAD_SECTIONVIEWSTYLE
350
67
  3
ACAD_TABLESTYLE
350
63
  3
ACAD_VISUALSTYLE
350
29
  3
ACDB_RECOMPOSE_DATA
350
1B57
  3
AcDbVariableDictionary
350
1B47
  3
AcDsDecomposeData
350
1B5D
  0
DICTIONARY
  5
284
330
2
100
AcDbDictionary
280
     1
281
     1
  3
ACAD_LAYERSTATES
360
285
  0
DICTIONARY
  5
1759
330
54
100
AcDbDictionary
280
     1
281
     1
  3
ADSK_XREC_LAYER_RECONCILED
360
175A
  0
DICTIONARY
  5
16A9
330
149A
100
AcDbDictionary
280
     1
281
     1
  3
ACAD_SORTENTS
360
16AA
  0
DICTIONARY
  5
170E
330
16FA
100
AcDbDictionary
280
     1
281
     1
  3
ACAD_SORTENTS
360
170F
  0
XRECORD
  5
282
102
{ACAD_REACTORS
330
C
102
}
330
C
100
AcDbXrecord
280
     1
300
ACD
300
2017
300
ACD_F_S
  0
DICTIONARY
  5
62
102
{ACAD_REACTORS
330
C
102
}
330
C
100
AcDbDictionary
281
     1
  0
DICTIONARY
  5
69
102
{ACAD_REACTORS
330
C
102
}
330
C
100
AcDbDictionary
281
     1
  3
Imperial24
350
6A
  0
DICTIONARY
  5
D
102
{ACAD_REACTORS
330
C
102
}
330
C
100
AcDbDictionary
281
     1
  3
*A1
350
C16
  0
DICTIONARY
  5
61
102
{ACAD_REACTORS
330
C
102
}
330
C
100
AcDbDictionary
281
     1
  3
Layout1
350
6E
  3
Model
350
72
  0
DICTIONARY
  5
10
102
{ACAD_REACTORS
330
C
102
}
330
C
100
AcDbDictionary
281
     1
  3
ByBlock
350
19
  3
ByLayer
350
11
  3
Global
350
21
  0
DICTIONARY
  5
65
102
{ACAD_REACTORS
330
C
102
}
330
C
100
AcDbDictionary
281
     1
  3
Standard
350
66
  0
DICTIONARY
  5
5E
102
{ACAD_REACTORS
330
C
102
}
330
C
100
AcDbDictionary
281
     1
  3
Standard
350
5F
  0
DICTIONARY
  5
60
102
{ACAD_REACTORS
330
C
102
}
330
C
100
AcDbDictionary
281
     1
  0
ACDBDICTIONARYWDFLT
  5
E
102
{ACAD_REACTORS
330
C
102
}
330
C
100
AcDbDictionary
281
     1
  3
Normal
350
F
100
AcDbDictionaryWithDefault
340
F
  0
DICTIONARY
  5
42
102
{ACAD_REACTORS
330
C
102
}
330
C
100
AcDbDictionary
281
     1
  3
A0
350
43
  3
A1
350
44
  3
A2
350
45
  3
A3
350
46
  3
A4
350
47
  3
A5
350
48
  3
A6
350
49
  3
A7
350
4A
  3
A8
350
4B
  3
A9
350
4C
  3
B0
350
4D
  3
B1
350
4E
  3
B2
350
4F
  3
B3
350
50
  3
B4
350
51
  3
B5
350
52
  3
B6
350
53
  0
DICTIONARY
  5
67
102
{ACAD_REACTORS
330
C
102
}
330
C
100
AcDbDictionary
281
     1
  3
Imperial24
350
68
  0
DICTIONARY
  5
63
102
{ACAD_REACTORS
330
C
102
}
330
C
100
AcDbDictionary
281
     1
  3
Standard
350
64
  0
DICTIONARY
  5
29
102
{ACAD_REACTORS
330
C
102
}
330
C
100
AcDbDictionary
281
     1
  3
2dWireframe
350
2F
  3
Basic
350
2E
  3
Brighten
350
35
  3
ColorChange
350
39
  3
Conceptual
350
32
  3
Dim
350
34
  3
EdgeColorOff
350
41
  3
Facepattern
350
38
  3
Flat
350
2A
  3
FlatWithEdges
350
2B
  3
Gouraud
350
2C
  3
GouraudWithEdges
350
2D
  3
Hidden
350
31
  3
JitterOff
350
3F
  3
Linepattern
350
37
  3
OverhangOff
350
40
  3
Realistic
350
33
  3
Shaded
350
3E
  3
Shaded with edges
350
3D
  3
Shades of Gray
350
3A
  3
Sketchy
350
3B
  3
Thicken
350
36
  3
Wireframe
350
30
  3
X-Ray
350
3C
  0
XRECORD
  5
1B57
102
{ACAD_REACTORS
330
C
102
}
330
C
100
AcDbXrecord
280
     1
 90
        1
330
64
  0
DICTIONARY
  5
1B47
102
{ACAD_REACTORS
330
C
102
}
330
C
100
AcDbDictionary
281
     1
  3
CANNOSCALE
350
1B4D
  3
CMLEADERSTYLE
350
1B49
  3
CTABLESTYLE
350
1B48
  3
CVIEWDETAILSTYLE
350
1B4A
  3
CVIEWSECTIONSTYLE
350
1B4B
  3
LAYEREVAL
350
1B4F
  3
LAYERNOTIFY
350
1B50
  3
LIGHTINGUNITS
350
1B4E
  3
MSLTSCALE
350
1B4C
  0
DICTIONARY
  5
1B5D
102
{ACAD_REACTORS
330
C
102
}
330
C
100
AcDbDictionary
281
     1
  3
AcDsRecords
350
1B5F
  3
AcDsSchemas
350
1B5E
1001
ACAD
1070
     2
  0
DICTIONARY
  5
285
102
{ACAD_REACTORS
330
284
102
}
330
284
100
AcDbDictionary
281
     1
  0
XRECORD
  5
175A
102
{ACAD_REACTORS
330
1759
102
}
330
1759
100
AcDbXrecord
280
     1
290
     1
  0
SORTENTSTABLE
  5
16AA
102
{ACAD_REACTORS
330
16A9
102
}
330
16A9
100
AcDbSortentsTable
330
149A
  0
SORTENTSTABLE
  5
170F
102
{ACAD_REACTORS
330
170E
102
}
330
170E
100
AcDbSortentsTable
330
16FA
  0
ACDBDETAILVIEWSTYLE
  5
6A
102
{ACAD_XDICTIONARY
360
1B44
102
}
102
{ACAD_REACTORS
330
69
102
}
330
69
100
AcDbModelDocViewStyle
 70
     0
  3
Imperial24
290
     0
100
AcDbDetailViewStyle
 70
     0
 71
     0
 90
        3
 71
     1
340
55
 62
   256
 40
0.24
340
0
 62
   256
 40
0.24
300

 40
0.36
280
     3
 71
     2
340
5C
 90
       25
 62
   256
 71
     3
340
55
 62
   256
 40
0.24
 90
        1
 40
0.75
 90
        1
300
%<\AcVar ViewType \f "%tc1">% %<\AcVar ViewDetailId>%\PSCALE %<\AcVar ViewScale \f "%sn">%
 71
     4
340
5C
 90
       25
 62
   256
340
5C
 90
       25
 62
   256
280
     0
  0
GROUP
  5
C16
102
{ACAD_REACTORS
330
D
102
}
330
D
100
AcDbGroup
300

 70
     1
 71
     1
340
C15
340
BCD
340
BCB
340
B39
340
B38
340
B37
340
B36
340
B35
340
B34
340
B33
340
B32
340
B31
340
B30
340
B2E
340
B2D
340
B2C
340
B2B
  0
LAYOUT
  5
6E
102
{ACAD_REACTORS
330
61
102
}
330
61
100
AcDbPlotSettings
  1

  2
Canon MX470 series Printer WS
  4

  6

 40
0.0
 41
0.0
 42
0.0
 43
0.0
 44
0.0
 45
0.0
 46
0.0
 47
0.0
 48
0.0
 49
0.0
140
0.0
141
0.0
142
1.0
143
1.0
 70
   688
 72
     0
 73
     0
 74
     5
  7

 75
    16
147
1.0
 76
     0
 77
     2
 78
   300
148
0.0
149
0.0
100
AcDbLayout
  1
Layout1
 70
     1
 71
     1
 10
0.0
 20
0.0
 11
12.0
 21
9.0
 12
0.0
 22
0.0
 32
0.0
 14
1.000000000000000E+20
 24
1.000000000000000E+20
 34
1.000000000000000E+20
 15
-1.000000000000000E+20
 25
-1.000000000000000E+20
 35
-1.000000000000000E+20
146
0.0
 13
0.0
 23
0.0
 33
0.0
 16
1.0
 26
0.0
 36
0.0
 17
0.0
 27
1.0
 37
0.0
 76
     0
330
6B
  0
LAYOUT
  5
72
102
{ACAD_REACTORS
330
61
102
}
330
61
100
AcDbPlotSettings
  1

  2
Canon MX470 series Printer WS
  4

  6

 40
0.0
 41
0.0
 42
0.0
 43
0.0
 44
0.0
 45
0.0
 46
0.0
 47
0.0
 48
0.0
 49
0.0
140
0.0
141
0.0
142
1.0
143
1.0
 70
  1712
 72
     0
 73
     0
 74
     0
  7

 75
     0
147
1.0
 76
     0
 77
     2
 78
   300
148
0.0
149
0.0
100
AcDbLayout
  1
Model
 70
     1
 71
     0
 10
0.0
 20
0.0
 11
12.0
 21
9.0
 12
0.0
 22
0.0
 32
0.0
 14
0.0
 24
0.0
 34
0.0
 15
0.0
 25
0.0
 35
0.0
146
0.0
 13
0.0
 23
0.0
 33
0.0
 16
1.0
 26
0.0
 36
0.0
 17
0.0
 27
1.0
 37
0.0
 76
     0
330
6F
331
74
  0
MATERIAL
  5
19
102
{ACAD_XDICTIONARY
360
1A
102
}
102
{ACAD_REACTORS
330
10
102
}
330
10
100
AcDbMaterial
  1
ByBlock
 72
     0
 43
0.0208333333333333
 43
0.0
 43
0.0
 43
0.0
 43
0.0
 43
0.0208333333333333
 43
0.0
 43
0.0
 43
0.0
 43
0.0
 43
1.0
 43
0.0
 43
0.0
 43
0.0
 43
0.0
 43
1.0
 77
     0
 47
0.0208333333333333
 47
0.0
 47
0.0
 47
0.0
 47
0.0
 47
0.0208333333333333
 47
0.0
 47
0.0
 47
0.0
 47
0.0
 47
1.0
 47
0.0
 47
0.0
 47
0.0
 47
0.0
 47
1.0
171
     0
 49
0.0208333333333333
 49
0.0
 49
0.0
 49
0.0
 49
0.0
 49
0.0208333333333333
 49
0.0
 49
0.0
 49
0.0
 49
0.0
 49
1.0
 49
0.0
 49
0.0
 49
0.0
 49
0.0
 49
1.0
175
     0
142
0.0208333333333333
142
0.0
142
0.0
142
0.0
142
0.0
142
0.0208333333333333
142
0.0
142
0.0
142
0.0
142
0.0
142
1.0
142
0.0
142
0.0
142
0.0
142
0.0
142
1.0
179
     0
144
0.0208333333333333
144
0.0
144
0.0
144
0.0
144
0.0
144
0.0208333333333333
144
0.0
144
0.0
144
0.0
144
0.0
144
1.0
144
0.0
144
0.0
144
0.0
144
0.0
144
1.0
147
0.0208333333333333
147
0.0
147
0.0
147
0.0
147
0.0
147
0.0208333333333333
147
0.0
147
0.0
147
0.0
147
0.0
147
1.0
147
0.0
147
0.0
147
0.0
147
0.0
147
1.0
  0
MATERIAL
  5
11
102
{ACAD_XDICTIONARY
360
12
102
}
102
{ACAD_REACTORS
330
10
102
}
330
10
100
AcDbMaterial
  1
ByLayer
 72
     0
 43
0.0208333333333333
 43
0.0
 43
0.0
 43
0.0
 43
0.0
 43
0.0208333333333333
 43
0.0
 43
0.0
 43
0.0
 43
0.0
 43
1.0
 43
0.0
 43
0.0
 43
0.0
 43
0.0
 43
1.0
 77
     0
 47
0.0208333333333333
 47
0.0
 47
0.0
 47
0.0
 47
0.0
 47
0.0208333333333333
 47
0.0
 47
0.0
 47
0.0
 47
0.0
 47
1.0
 47
0.0
 47
0.0
 47
0.0
 47
0.0
 47
1.0
171
     0
 49
0.0208333333333333
 49
0.0
 49
0.0
 49
0.0
 49
0.0
 49
0.0208333333333333
 49
0.0
 49
0.0
 49
0.0
 49
0.0
 49
1.0
 49
0.0
 49
0.0
 49
0.0
 49
0.0
 49
1.0
175
     0
142
0.0208333333333333
142
0.0
142
0.0
142
0.0
142
0.0
142
0.0208333333333333
142
0.0
142
0.0
142
0.0
142
0.0
142
1.0
142
0.0
142
0.0
142
0.0
142
0.0
142
1.0
179
     0
144
0.0208333333333333
144
0.0
144
0.0
144
0.0
144
0.0
144
0.0208333333333333
144
0.0
144
0.0
144
0.0
144
0.0
144
1.0
144
0.0
144
0.0
144
0.0
144
0.0
144
1.0
147
0.0208333333333333
147
0.0
147
0.0
147
0.0
147
0.0
147
0.0208333333333333
147
0.0
147
0.0
147
0.0
147
0.0
147
1.0
147
0.0
147
0.0
147
0.0
147
0.0
147
1.0
  0
MATERIAL
  5
21
102
{ACAD_XDICTIONARY
360
22
102
}
102
{ACAD_REACTORS
330
10
102
}
330
10
100
AcDbMaterial
  1
Global
 72
     0
 43
0.0208333333333333
 43
0.0
 43
0.0
 43
0.0
 43
0.0
 43
0.0208333333333333
 43
0.0
 43
0.0
 43
0.0
 43
0.0
 43
1.0
 43
0.0
 43
0.0
 43
0.0
 43
0.0
 43
1.0
 77
     0
 47
0.0208333333333333
 47
0.0
 47
0.0
 47
0.0
 47
0.0
 47
0.0208333333333333
 47
0.0
 47
0.0
 47
0.0
 47
0.0
 47
1.0
 47
0.0
 47
0.0
 47
0.0
 47
0.0
 47
1.0
171
     0
 49
0.0208333333333333
 49
0.0
 49
0.0
 49
0.0
 49
0.0
 49
0.0208333333333333
 49
0.0
 49
0.0
 49
0.0
 49
0.0
 49
1.0
 49
0.0
 49
0.0
 49
0.0
 49
0.0
 49
1.0
175
     0
142
0.0208333333333333
142
0.0
142
0.0
142
0.0
142
0.0
142
0.0208333333333333
142
0.0
142
0.0
142
0.0
142
0.0
142
1.0
142
0.0
142
0.0
142
0.0
142
0.0
142
1.0
179
     0
144
0.0208333333333333
144
0.0
144
0.0
144
0.0
144
0.0
144
0.0208333333333333
144
0.0
144
0.0
144
0.0
144
0.0
144
1.0
144
0.0
144
0.0
144
0.0
144
0.0
144
1.0
147
0.0208333333333333
147
0.0
147
0.0
147
0.0
147
0.0
147
0.0208333333333333
147
0.0
147
0.0
147
0.0
147
0.0
147
1.0
147
0.0
147
0.0
147
0.0
147
0.0
147
1.0
  0
MLEADERSTYLE
  5
66
102
{ACAD_REACTORS
330
65
102
}
330
65
100
AcDbMLeaderStyle
179
     2
170
     2
171
     1
172
     0
 90
        2
 40
0.0
 41
0.0
173
     1
 91
-1056964608
340
5A
 92
       -2
290
     1
 42
0.09
291
     1
 43
0.36
  3
Standard
 44
0.18
300

342
55
174
     1
178
     6
175
     1
176
     0
 93
-1056964608
 45
0.18
292
     0
297
     0
 46
0.18
 94
-1056964608
 47
1.0
 49
1.0
140
1.0
293
     1
141
0.0
294
     1
177
     0
142
1.0
295
     0
296
     0
143
0.125
271
     0
272
     9
273
     9
  0
MLINESTYLE
  5
5F
102
{ACAD_REACTORS
330
5E
102
}
330
5E
100
AcDbMlineStyle
  2
STANDARD
 70
     0
  3

 62
   256
 51
90.0
 52
90.0
 71
     2
 49
0.5
 62
   256
  6
BYLAYER
 49
-0.5
 62
   256
  6
BYLAYER
  0
ACDBPLACEHOLDER
  5
F
102
{ACAD_REACTORS
330
E
102
}
330
E
  0
SCALE
  5
43
102
{ACAD_REACTORS
330
42
102
}
330
42
100
AcDbScale
 70
     0
300
1:1
140
1.0
141
1.0
290
     1
  0
SCALE
  5
44
102
{ACAD_REACTORS
330
42
102
}
330
42
100
AcDbScale
 70
     0
300
1/128" = 1'-0"
140
0.0078125
141
12.0
290
     0
  0
SCALE
  5
45
102
{ACAD_REACTORS
330
42
102
}
330
42
100
AcDbScale
 70
     0
300
1/64" = 1'-0"
140
0.015625
141
12.0
290
     0
  0
SCALE
  5
46
102
{ACAD_REACTORS
330
42
102
}
330
42
100
AcDbScale
 70
     0
300
1/32" = 1'-0"
140
0.03125
141
12.0
290
     0
  0
SCALE
  5
47
102
{ACAD_REACTORS
330
42
102
}
330
42
100
AcDbScale
 70
     0
300
1/16" = 1'-0"
140
0.0625
141
12.0
290
     0
  0
SCALE
  5
48
102
{ACAD_REACTORS
330
42
102
}
330
42
100
AcDbScale
 70
     0
300
3/32" = 1'-0"
140
0.09375
141
12.0
290
     0
  0
SCALE
  5
49
102
{ACAD_REACTORS
330
42
102
}
330
42
100
AcDbScale
 70
     0
300
1/8" = 1'-0"
140
0.125
141
12.0
290
     0
  0
SCALE
  5
4A
102
{ACAD_REACTORS
330
42
102
}
330
42
100
AcDbScale
 70
     0
300
3/16" = 1'-0"
140
0.1875
141
12.0
290
     0
  0
SCALE
  5
4B
102
{ACAD_REACTORS
330
42
102
}
330
42
100
AcDbScale
 70
     0
300
1/4" = 1'-0"
140
0.25
141
12.0
290
     0
  0
SCALE
  5
4C
102
{ACAD_REACTORS
330
42
102
}
330
42
100
AcDbScale
 70
     0
300
3/8" = 1'-0"
140
0.375
141
12.0
290
     0
  0
SCALE
  5
4D
102
{ACAD_REACTORS
330
42
102
}
330
42
100
AcDbScale
 70
     0
300
1/2" = 1'-0"
140
0.5
141
12.0
290
     0
  0
SCALE
  5
4E
102
{ACAD_REACTORS
330
42
102
}
330
42
100
AcDbScale
 70
     0
300
3/4" = 1'-0"
140
0.75
141
12.0
290
     0
  0
SCALE
  5
4F
102
{ACAD_REACTORS
330
42
102
}
330
42
100
AcDbScale
 70
     0
300
1" = 1'-0"
140
1.0
141
12.0
290
     0
  0
SCALE
  5
50
102
{ACAD_REACTORS
330
42
102
}
330
42
100
AcDbScale
 70
     0
300
1-1/2" = 1'-0"
140
1.5
141
12.0
290
     0
  0
SCALE
  5
51
102
{ACAD_REACTORS
330
42
102
}
330
42
100
AcDbScale
 70
     0
300
3" = 1'-0"
140
3.0
141
12.0
290
     0
  0
SCALE
  5
52
102
{ACAD_REACTORS
330
42
102
}
330
42
100
AcDbScale
 70
     0
300
6" = 1'-0"
140
6.0
141
12.0
290
     0
  0
SCALE
  5
53
102
{ACAD_REACTORS
330
42
102
}
330
42
100
AcDbScale
 70
     0
300
1'-0" = 1'-0"
140
12.0
141
12.0
290
     0
  0
ACDBSECTIONVIEWSTYLE
  5
68
102
{ACAD_XDICTIONARY
360
1B42
102
}
102
{ACAD_REACTORS
330
67
102
}
330
67
100
AcDbModelDocViewStyle
 70
     0
  3
Imperial24
290
     0
100
AcDbSectionViewStyle
 70
     0
 71
     0
 90
       78
 71
     1
340
55
 62
   256
 40
0.24
340
0
340
0
 62
   256
 40
0.24
300
I, O, Q, S, X, Z
 40
0.48
 90
        3
 40
0.18
 90
        1
 71
     2
340
5C
 90
       25
 62
   256
340
5C
 90
       50
 62
   256
 40
0.24
 40
0.0
 40
0.24
 71
     3
340
55
 62
   256
 40
0.24
 90
        1
 40
0.75
 90
        1
300
%<\AcVar ViewType \f "%tc1">% %<\AcVar ViewSectionStartId>%-%<\AcVar ViewSectionEndId>%\PSCALE %<\AcVar ViewScale \f "%sn">%
 71
     4
 62
   256
 62
   257
300
ANSI31
 40
1.0
 90
        0
290
     0
290
     0
 90
        6
 40
0.0
 40
1.570796326794896
 40
0.2617993877991494
 40
1.308996938995747
 40
-0.2617993877991494
 40
1.832595714594046
  0
TABLESTYLE
  5
64
102
{ACAD_XDICTIONARY
360
1B55
102
}
102
{ACAD_REACTORS
330
63
102
}
330
63
100
AcDbTableStyle
280
     0
  3
Standard
 70
     0
 71
     0
 40
0.06
 41
0.06
280
     0
281
     0
  7
Standard
140
0.18
170
     2
 62
     0
 63
     7
283
     0
 90
      512
 91
        0
  1

274
    -2
284
     1
 64
     0
275
    -2
285
     1
 65
     0
276
    -2
286
     1
 66
     0
277
    -2
287
     1
 67
     0
278
    -2
288
     1
 68
     0
279
    -2
289
     1
 69
     0
  7
Standard
140
0.25
170
     5
 62
     0
 63
     7
283
     0
 90
      512
 91
        0
  1

274
    -2
284
     1
 64
     0
275
    -2
285
     1
 65
     0
276
    -2
286
     1
 66
     0
277
    -2
287
     1
 67
     0
278
    -2
288
     1
 68
     0
279
    -2
289
     1
 69
     0
  7
Standard
140
0.18
170
     5
 62
     0
 63
     7
283
     0
 90
      512
 91
        0
  1

274
    -2
284
     1
 64
     0
275
    -2
285
     1
 65
     0
276
    -2
286
     1
 66
     0
277
    -2
287
     1
 67
     0
278
    -2
288
     1
 68
     0
279
    -2
289
     1
 69
     0
  0
VISUALSTYLE
  5
2F
102
{ACAD_XDICTIONARY
360
1B6A
102
}
102
{ACAD_REACTORS
330
29
102
}
330
29
100
AcDbVisualStyle
  2
2dWireframe
 70
     4
177
     2
291
     0
 71
     0
176
     1
 72
     2
176
     1
 73
     0
176
     1
 90
        0
176
     1
 40
0.6
176
     1
 41
30.0
176
     1
 63
     7
421
 16777215
176
     1
 74
     1
176
     1
 91
        4
176
     1
 64
     7
176
     1
 65
   257
176
     1
 75
     1
176
     1
175
     1
176
     1
 42
1.0
176
     1
 92
        0
176
     1
 66
   257
176
     1
 43
1.0
176
     1
 76
     1
176
     1
 77
     6
176
     1
 78
     2
176
     1
 67
     7
176
     1
 79
     5
176
     1
170
     0
176
     1
171
     0
176
     1
290
     0
176
     1
 93
        1
176
     1
 44
0.0
176
     1
173
     0
176
     1
1001
ACAD
1000
AcDbSavedByObjectVersion
1070
     0
  0
VISUALSTYLE
  5
2E
102
{ACAD_XDICTIONARY
360
1B68
102
}
102
{ACAD_REACTORS
330
29
102
}
330
29
100
AcDbVisualStyle
  2
Basic
 70
     7
177
     2
291
     1
 71
     1
176
     1
 72
     0
176
     1
 73
     1
176
     1
 90
        0
176
     1
 40
0.6
176
     1
 41
30.0
176
     1
 63
     7
421
 16777215
176
     1
 74
     0
176
     1
 91
        4
176
     1
 64
     7
176
     1
 65
   257
176
     1
 75
     1
176
     1
175
     1
176
     1
 42
1.0
176
     1
 92
        8
176
     1
 66
     7
176
     1
 43
1.0
176
     1
 76
     1
176
     1
 77
     6
176
     1
 78
     2
176
     1
 67
     7
176
     1
 79
     5
176
     1
170
     0
176
     1
171
     0
176
     1
290
     0
176
     1
 93
        1
176
     1
 44
0.0
176
     1
173
     0
176
     1
1001
ACAD
1000
AcDbSavedByObjectVersion
1070
     0
  0
VISUALSTYLE
  5
35
102
{ACAD_XDICTIONARY
360
1B76
102
}
102
{ACAD_REACTORS
330
29
102
}
330
29
100
AcDbVisualStyle
  2
Brighten
 70
    12
177
     2
291
     1
 71
     2
176
     1
 72
     2
176
     1
 73
     0
176
     1
 90
        0
176
     1
 40
0.6
176
     1
 41
30.0
176
     1
 63
     7
421
 16777215
176
     1
 74
     1
176
     1
 91
        4
176
     1
 64
     7
176
     1
 65
   257
176
     1
 75
     1
176
     1
175
     1
176
     1
 42
1.0
176
     1
 92
        8
176
     1
 66
     7
176
     1
 43
1.0
176
     1
 76
     1
176
     1
 77
     6
176
     1
 78
     2
176
     1
 67
     7
176
     1
 79
     5
176
     1
170
     0
176
     1
171
     0
176
     1
290
     0
176
     1
 93
        1
176
     1
 44
50.0
176
     1
173
     0
176
     1
1001
ACAD
1000
AcDbSavedByObjectVersion
1070
     0
  0
VISUALSTYLE
  5
39
102
{ACAD_XDICTIONARY
360
1B7E
102
}
102
{ACAD_REACTORS
330
29
102
}
330
29
100
AcDbVisualStyle
  2
ColorChange
 70
    16
177
     2
291
     1
 71
     2
176
     1
 72
     2
176
     1
 73
     3
176
     1
 90
        0
176
     1
 40
0.6
176
     1
 41
30.0
176
     1
 63
     8
421
  8421504
176
     1
 74
     1
176
     1
 91
        4
176
     1
 64
     7
176
     1
 65
   257
176
     1
 75
     1
176
     1
175
     1
176
     1
 42
1.0
176
     1
 92
        8
176
     1
 66
     8
424
  8421504
176
     1
 43
1.0
176
     1
 76
     1
176
     1
 77
     6
176
     1
 78
     2
176
     1
 67
     7
176
     1
 79
     5
176
     1
170
     0
176
     1
171
     0
176
     1
290
     0
176
     1
 93
        1
176
     1
 44
0.0
176
     1
173
     0
176
     1
1001
ACAD
1000
AcDbSavedByObjectVersion
1070
     0
  0
VISUALSTYLE
  5
32
102
{ACAD_XDICTIONARY
360
1B70
102
}
102
{ACAD_REACTORS
330
29
102
}
330
29
100
AcDbVisualStyle
  2
Conceptual
 70
     9
177
     2
291
     0
 71
     3
176
     1
 72
     2
176
     1
 73
     0
176
     1
 90
        0
176
     1
 40
0.6
176
     1
 41
30.0
176
     1
 63
     7
421
 16777215
176
     1
 74
     2
176
     1
 91
        2
176
     1
 64
     7
176
     1
 65
   257
176
     1
 75
     1
176
     1
175
     1
176
     1
 42
179.0
176
     1
 92
        8
176
     1
 66
     7
176
     1
 43
1.0
176
     1
 76
     1
176
     1
 77
     6
176
     1
 78
     2
176
     1
 67
     7
176
     1
 79
     3
176
     1
170
     0
176
     1
171
     0
176
     1
290
     0
176
     1
 93
        1
176
     1
 44
0.0
176
     1
173
     0
176
     1
1001
ACAD
1000
AcDbSavedByObjectVersion
1070
     0
  0
VISUALSTYLE
  5
34
102
{ACAD_XDICTIONARY
360
1B74
102
}
102
{ACAD_REACTORS
330
29
102
}
330
29
100
AcDbVisualStyle
  2
Dim
 70
    11
177
     2
291
     1
 71
     2
176
     1
 72
     2
176
     1
 73
     0
176
     1
 90
        0
176
     1
 40
0.6
176
     1
 41
30.0
176
     1
 63
     7
421
 16777215
176
     1
 74
     1
176
     1
 91
        4
176
     1
 64
     7
176
     1
 65
   257
176
     1
 75
     1
176
     1
175
     1
176
     1
 42
1.0
176
     1
 92
        8
176
     1
 66
     7
176
     1
 43
1.0
176
     1
 76
     1
176
     1
 77
     6
176
     1
 78
     2
176
     1
 67
     7
176
     1
 79
     5
176
     1
170
     0
176
     1
171
     0
176
     1
290
     0
176
     1
 93
        1
176
     1
 44
-50.0
176
     1
173
     0
176
     1
1001
ACAD
1000
AcDbSavedByObjectVersion
1070
     0
  0
VISUALSTYLE
  5
41
102
{ACAD_XDICTIONARY
360
1B8E
102
}
102
{ACAD_REACTORS
330
29
102
}
330
29
100
AcDbVisualStyle
  2
EdgeColorOff
 70
    22
177
     2
291
     1
 71
     2
176
     0
 72
     2
176
     0
 73
     0
176
     0
 90
        0
176
     0
 40
0.6
176
     0
 41
30.0
176
     0
 63
     7
421
 16777215
176
     0
 74
     1
176
     0
 91
        4
176
     0
 64
     7
176
     0
 65
   257
176
     0
 75
     1
176
     0
175
     1
176
     0
 42
1.0
176
     0
 92
        8
176
     2
 66
     7
176
     0
 43
1.0
176
     0
 76
     1
176
     0
 77
     6
176
     0
 78
     2
176
     0
 67
     7
176
     0
 79
     5
176
     0
170
     0
176
     0
171
     0
176
     0
290
     0
176
     0
 93
        1
176
     0
 44
0.0
176
     0
173
     0
176
     0
1001
ACAD
1000
AcDbSavedByObjectVersion
1070
     0
  0
VISUALSTYLE
  5
38
102
{ACAD_XDICTIONARY
360
1B7C
102
}
102
{ACAD_REACTORS
330
29
102
}
330
29
100
AcDbVisualStyle
  2
Facepattern
 70
    15
177
     2
291
     1
 71
     2
176
     1
 72
     2
176
     1
 73
     0
176
     1
 90
        0
176
     1
 40
0.6
176
     1
 41
30.0
176
     1
 63
     7
421
 16777215
176
     1
 74
     1
176
     1
 91
        4
176
     1
 64
     7
176
     1
 65
   257
176
     1
 75
     1
176
     1
175
     1
176
     1
 42
1.0
176
     1
 92
        8
176
     1
 66
     7
176
     1
 43
1.0
176
     1
 76
     1
176
     1
 77
     6
176
     1
 78
     2
176
     1
 67
     7
176
     1
 79
     5
176
     1
170
     0
176
     1
171
     0
176
     1
290
     0
176
     1
 93
        1
176
     1
 44
0.0
176
     1
173
     0
176
     1
1001
ACAD
1000
AcDbSavedByObjectVersion
1070
     0
  0
VISUALSTYLE
  5
2A
102
{ACAD_XDICTIONARY
360
1B60
102
}
102
{ACAD_REACTORS
330
29
102
}
330
29
100
AcDbVisualStyle
  2
Flat
 70
     0
177
     2
291
     1
 71
     2
176
     1
 72
     1
176
     1
 73
     1
176
     1
 90
        2
176
     1
 40
0.6
176
     1
 41
30.0
176
     1
 63
     7
421
 16777215
176
     1
 74
     0
176
     1
 91
        0
176
     1
 64
     7
176
     1
 65
   257
176
     1
 75
     1
176
     1
175
     1
176
     1
 42
1.0
176
     1
 92
        8
176
     1
 66
     7
176
     1
 43
1.0
176
     1
 76
     1
176
     1
 77
     6
176
     1
 78
     2
176
     1
 67
     7
176
     1
 79
     5
176
     1
170
     0
176
     1
171
     0
176
     1
290
     0
176
     1
 93
       13
176
     1
 44
0.0
176
     1
173
     0
176
     1
1001
ACAD
1000
AcDbSavedByObjectVersion
1070
     0
  0
VISUALSTYLE
  5
2B
102
{ACAD_XDICTIONARY
360
1B62
102
}
102
{ACAD_REACTORS
330
29
102
}
330
29
100
AcDbVisualStyle
  2
FlatWithEdges
 70
     1
177
     2
291
     1
 71
     2
176
     1
 72
     1
176
     1
 73
     1
176
     1
 90
        2
176
     1
 40
0.6
176
     1
 41
30.0
176
     1
 63
     7
421
 16777215
176
     1
 74
     1
176
     1
 91
        0
176
     1
 64
     7
176
     1
 65
   257
176
     1
 75
     1
176
     1
175
     1
176
     1
 42
1.0
176
     1
 92
        0
176
     1
 66
   257
176
     1
 43
1.0
176
     1
 76
     1
176
     1
 77
     6
176
     1
 78
     2
176
     1
 67
     7
176
     1
 79
     5
176
     1
170
     0
176
     1
171
     0
176
     1
290
     0
176
     1
 93
       13
176
     1
 44
0.0
176
     1
173
     0
176
     1
1001
ACAD
1000
AcDbSavedByObjectVersion
1070
     0
  0
VISUALSTYLE
  5
2C
102
{ACAD_XDICTIONARY
360
1B64
102
}
102
{ACAD_REACTORS
330
29
102
}
330
29
100
AcDbVisualStyle
  2
Gouraud
 70
     2
177
     2
291
     1
 71
     2
176
     1
 72
     2
176
     1
 73
     1
176
     1
 90
        2
176
     1
 40
0.6
176
     1
 41
30.0
176
     1
 63
     7
421
 16777215
176
     1
 74
     0
176
     1
 91
        0
176
     1
 64
     7
176
     1
 65
   257
176
     1
 75
     1
176
     1
175
     1
176
     1
 42
1.0
176
     1
 92
        0
176
     1
 66
     7
176
     1
 43
1.0
176
     1
 76
     1
176
     1
 77
     6
176
     1
 78
     2
176
     1
 67
     7
176
     1
 79
     5
176
     1
170
     0
176
     1
171
     0
176
     1
290
     0
176
     1
 93
       13
176
     1
 44
0.0
176
     1
173
     0
176
     1
1001
ACAD
1000
AcDbSavedByObjectVersion
1070
     0
  0
VISUALSTYLE
  5
2D
102
{ACAD_XDICTIONARY
360
1B66
102
}
102
{ACAD_REACTORS
330
29
102
}
330
29
100
AcDbVisualStyle
  2
GouraudWithEdges
 70
     3
177
     2
291
     1
 71
     2
176
     1
 72
     2
176
     1
 73
     1
176
     1
 90
        2
176
     1
 40
0.6
176
     1
 41
30.0
176
     1
 63
     7
421
 16777215
176
     1
 74
     1
176
     1
 91
        0
176
     1
 64
     7
176
     1
 65
   257
176
     1
 75
     1
176
     1
175
     1
176
     1
 42
1.0
176
     1
 92
        0
176
     1
 66
   257
176
     1
 43
1.0
176
     1
 76
     1
176
     1
 77
     6
176
     1
 78
     2
176
     1
 67
     7
176
     1
 79
     5
176
     1
170
     0
176
     1
171
     0
176
     1
290
     0
176
     1
 93
       13
176
     1
 44
0.0
176
     1
173
     0
176
     1
1001
ACAD
1000
AcDbSavedByObjectVersion
1070
     0
  0
VISUALSTYLE
  5
31
102
{ACAD_XDICTIONARY
360
1B6E
102
}
102
{ACAD_REACTORS
330
29
102
}
330
29
100
AcDbVisualStyle
  2
Hidden
 70
     6
177
     2
291
     0
 71
     1
176
     1
 72
     2
176
     1
 73
     2
176
     1
 90
        0
176
     1
 40
0.6
176
     1
 41
30.0
176
     1
 63
     7
421
 16777215
176
     1
 74
     2
176
     1
 91
        2
176
     1
 64
     7
176
     1
 65
   257
176
     1
 75
     2
176
     1
175
     1
176
     1
 42
40.0
176
     1
 92
        0
176
     1
 66
   257
176
     1
 43
1.0
176
     1
 76
     1
176
     1
 77
     6
176
     1
 78
     2
176
     1
 67
     7
176
     1
 79
     3
176
     1
170
     0
176
     1
171
     0
176
     1
290
     0
176
     1
 93
        1
176
     1
 44
0.0
176
     1
173
     0
176
     1
1001
ACAD
1000
AcDbSavedByObjectVersion
1070
     0
  0
VISUALSTYLE
  5
3F
102
{ACAD_XDICTIONARY
360
1B8A
102
}
102
{ACAD_REACTORS
330
29
102
}
330
29
100
AcDbVisualStyle
  2
JitterOff
 70
    20
177
     2
291
     1
 71
     2
176
     0
 72
     2
176
     0
 73
     0
176
     0
 90
        0
176
     0
 40
0.6
176
     0
 41
30.0
176
     0
 63
     7
421
 16777215
176
     0
 74
     1
176
     0
 91
        4
176
     0
 64
     7
176
     0
 65
   257
176
     0
 75
     1
176
     0
175
     1
176
     0
 42
1.0
176
     0
 92
       10
176
     2
 66
     7
176
     0
 43
1.0
176
     0
 76
     1
176
     0
 77
     6
176
     0
 78
     2
176
     0
 67
     7
176
     0
 79
     5
176
     0
170
     0
176
     0
171
     0
176
     0
290
     0
176
     0
 93
        1
176
     0
 44
0.0
176
     0
173
     0
176
     0
1001
ACAD
1000
AcDbSavedByObjectVersion
1070
     0
  0
VISUALSTYLE
  5
37
102
{ACAD_XDICTIONARY
360
1B7A
102
}
102
{ACAD_REACTORS
330
29
102
}
330
29
100
AcDbVisualStyle
  2
Linepattern
 70
    14
177
     2
291
     1
 71
     2
176
     1
 72
     2
176
     1
 73
     0
176
     1
 90
        0
176
     1
 40
0.6
176
     1
 41
30.0
176
     1
 63
     7
421
 16777215
176
     1
 74
     1
176
     1
 91
        4
176
     1
 64
     7
176
     1
 65
   257
176
     1
 75
     7
176
     1
175
     7
176
     1
 42
1.0
176
     1
 92
        8
176
     1
 66
     7
176
     1
 43
1.0
176
     1
 76
     1
176
     1
 77
     6
176
     1
 78
     2
176
     1
 67
     7
176
     1
 79
     5
176
     1
170
     0
176
     1
171
     0
176
     1
290
     0
176
     1
 93
        1
176
     1
 44
0.0
176
     1
173
     0
176
     1
1001
ACAD
1000
AcDbSavedByObjectVersion
1070
     0
  0
VISUALSTYLE
  5
40
102
{ACAD_XDICTIONARY
360
1B8C
102
}
102
{ACAD_REACTORS
330
29
102
}
330
29
100
AcDbVisualStyle
  2
OverhangOff
 70
    21
177
     2
291
     1
 71
     2
176
     0
 72
     2
176
     0
 73
     0
176
     0
 90
        0
176
     0
 40
0.6
176
     0
 41
30.0
176
     0
 63
     7
421
 16777215
176
     0
 74
     1
176
     0
 91
        4
176
     0
 64
     7
176
     0
 65
   257
176
     0
 75
     1
176
     0
175
     1
176
     0
 42
1.0
176
     0
 92
        9
176
     2
 66
     7
176
     0
 43
1.0
176
     0
 76
     1
176
     0
 77
     6
176
     0
 78
     2
176
     0
 67
     7
176
     0
 79
     5
176
     0
170
     0
176
     0
171
     0
176
     0
290
     0
176
     0
 93
        1
176
     0
 44
0.0
176
     0
173
     0
176
     0
1001
ACAD
1000
AcDbSavedByObjectVersion
1070
     0
  0
VISUALSTYLE
  5
33
102
{ACAD_XDICTIONARY
360
1B72
102
}
102
{ACAD_REACTORS
330
29
102
}
330
29
100
AcDbVisualStyle
  2
Realistic
 70
     8
177
     2
291
     0
 71
     2
176
     1
 72
     3
176
     1
 73
     0
176
     1
 90
        2
176
     1
 40
0.6
176
     1
 41
30.0
176
     1
 63
     7
421
 16777215
176
     1
 74
     0
176
     1
 91
        0
176
     1
 64
     7
176
     1
 65
   257
176
     1
 75
     1
176
     1
175
     1
176
     1
 42
1.0
176
     1
 92
        8
176
     1
 66
   257
176
     1
 43
1.0
176
     1
 76
     1
176
     1
 77
     6
176
     1
 78
     2
176
     1
 67
     7
176
     1
 79
     3
176
     1
170
     0
176
     1
171
     0
176
     1
290
     0
176
     1
 93
       13
176
     1
 44
0.0
176
     1
173
     0
176
     1
1001
ACAD
1000
AcDbSavedByObjectVersion
1070
     0
  0
VISUALSTYLE
  5
3E
102
{ACAD_XDICTIONARY
360
1B88
102
}
102
{ACAD_REACTORS
330
29
102
}
330
29
100
AcDbVisualStyle
  2
Shaded
 70
    27
177
     2
291
     0
 71
     2
176
     1
 72
     2
176
     1
 73
     1
176
     1
 90
        2
176
     1
 40
0.6
176
     1
 41
30.0
176
     1
 63
     7
421
 16777215
176
     1
 74
     0
176
     1
 91
        4
176
     1
 64
     7
176
     1
 65
   257
176
     1
 75
     1
176
     1
175
     1
176
     1
 42
1.0
176
     1
 92
        8
176
     1
 66
   257
176
     1
 43
1.0
176
     1
 76
     1
176
     1
 77
     6
176
     1
 78
     2
176
     1
 67
     8
425
  7895160
176
     1
 79
     3
176
     1
170
     0
176
     1
171
     0
176
     1
290
     0
176
     1
 93
        5
176
     1
 44
0.0
176
     1
173
     0
176
     1
1001
ACAD
1000
AcDbSavedByObjectVersion
1070
     0
  0
VISUALSTYLE
  5
3D
102
{ACAD_XDICTIONARY
360
1B86
102
}
102
{ACAD_REACTORS
330
29
102
}
330
29
100
AcDbVisualStyle
  2
Shaded with edges
 70
    26
177
     2
291
     0
 71
     2
176
     1
 72
     2
176
     1
 73
     1
176
     1
 90
        2
176
     1
 40
0.6
176
     1
 41
30.0
176
     1
 63
     7
421
 16777215
176
     1
 74
     1
176
     1
 91
        2
176
     1
 64
     7
176
     1
 65
   257
176
     1
 75
     2
176
     1
175
     1
176
     1
 42
1.0
176
     1
 92
        8
176
     1
 66
   257
176
     1
 43
1.0
176
     1
 76
     1
176
     1
 77
     6
176
     1
 78
     2
176
     1
 67
     7
176
     1
 79
     3
176
     1
170
     0
176
     1
171
     0
176
     1
290
     0
176
     1
 93
        5
176
     1
 44
0.0
176
     1
173
     0
176
     1
1001
ACAD
1000
AcDbSavedByObjectVersion
1070
     0
  0
VISUALSTYLE
  5
3A
102
{ACAD_XDICTIONARY
360
1B80
102
}
102
{ACAD_REACTORS
330
29
102
}
330
29
100
AcDbVisualStyle
  2
Shades of Gray
 70
    23
177
     2
291
     0
 71
     2
176
     1
 72
     2
176
     1
 73
     3
176
     1
 90
        0
176
     1
 40
0.6
176
     1
 41
30.0
176
     1
 63
     7
421
 16777215
176
     1
 74
     2
176
     1
 91
        2
176
     1
 64
     7
176
     1
 65
     7
176
     1
 75
     1
176
     1
175
     1
176
     1
 42
40.0
176
     1
 92
        8
176
     1
 66
     7
176
     1
 43
1.0
176
     1
 76
     1
176
     1
 77
     6
176
     1
 78
     2
176
     1
 67
     7
176
     1
 79
     3
176
     1
170
     0
176
     1
171
     0
176
     1
290
     0
176
     1
 93
        1
176
     1
 44
0.0
176
     1
173
     0
176
     1
1001
ACAD
1000
AcDbSavedByObjectVersion
1070
     0
  0
VISUALSTYLE
  5
3B
102
{ACAD_XDICTIONARY
360
1B82
102
}
102
{ACAD_REACTORS
330
29
102
}
330
29
100
AcDbVisualStyle
  2
Sketchy
 70
    24
177
     2
291
     0
 71
     1
176
     1
 72
     2
176
     1
 73
     2
176
     1
 90
        0
176
     1
 40
0.6
176
     1
 41
30.0
176
     1
 63
     7
421
 16777215
176
     1
 74
     2
176
     1
 91
        2
176
     1
 64
     7
176
     1
 65
     7
176
     1
 75
     1
176
     1
175
     1
176
     1
 42
40.0
176
     1
 92
       11
176
     1
 66
     7
176
     1
 43
1.0
176
     1
 76
     1
176
     1
 77
     6
176
     1
 78
     2
176
     1
 67
     7
176
     1
 79
     6
176
     1
170
     0
176
     1
171
     0
176
     1
290
     0
176
     1
 93
        1
176
     1
 44
0.0
176
     1
173
     0
176
     1
1001
ACAD
1000
AcDbSavedByObjectVersion
1070
     0
  0
VISUALSTYLE
  5
36
102
{ACAD_XDICTIONARY
360
1B78
102
}
102
{ACAD_REACTORS
330
29
102
}
330
29
100
AcDbVisualStyle
  2
Thicken
 70
    13
177
     2
291
     1
 71
     2
176
     1
 72
     2
176
     1
 73
     0
176
     1
 90
        0
176
     1
 40
0.6
176
     1
 41
30.0
176
     1
 63
     7
421
 16777215
176
     1
 74
     1
176
     1
 91
        4
176
     1
 64
     7
176
     1
 65
   257
176
     1
 75
     1
176
     1
175
     1
176
     1
 42
1.0
176
     1
 92
       12
176
     1
 66
     7
176
     1
 43
1.0
176
     1
 76
     1
176
     1
 77
     6
176
     1
 78
     2
176
     1
 67
     7
176
     1
 79
     5
176
     1
170
     0
176
     1
171
     0
176
     1
290
     0
176
     1
 93
        1
176
     1
 44
0.0
176
     1
173
     0
176
     1
1001
ACAD
1000
AcDbSavedByObjectVersion
1070
     0
  0
VISUALSTYLE
  5
30
102
{ACAD_XDICTIONARY
360
1B6C
102
}
102
{ACAD_REACTORS
330
29
102
}
330
29
100
AcDbVisualStyle
  2
Wireframe
 70
     5
177
     2
291
     0
 71
     0
176
     1
 72
     2
176
     1
 73
     0
176
     1
 90
        0
176
     1
 40
0.6
176
     1
 41
30.0
176
     1
 63
     7
421
 16777215
176
     1
 74
     1
176
     1
 91
        4
176
     1
 64
     7
176
     1
 65
   257
176
     1
 75
     1
176
     1
175
     1
176
     1
 42
1.0
176
     1
 92
        0
176
     1
 66
   257
176
     1
 43
1.0
176
     1
 76
     1
176
     1
 77
     6
176
     1
 78
     2
176
     1
 67
     7
176
     1
 79
     3
176
     1
170
     0
176
     1
171
     0
176
     1
290
     0
176
     1
 93
        1
176
     1
 44
0.0
176
     1
173
     0
176
     1
1001
ACAD
1000
AcDbSavedByObjectVersion
1070
     0
  0
VISUALSTYLE
  5
3C
102
{ACAD_XDICTIONARY
360
1B84
102
}
102
{ACAD_REACTORS
330
29
102
}
330
29
100
AcDbVisualStyle
  2
X-Ray
 70
    25
177
     2
291
     0
 71
     2
176
     1
 72
     2
176
     1
 73
     1
176
     1
 90
        1
176
     1
 40
0.5
176
     1
 41
30.0
176
     1
 63
     7
421
 16777215
176
     1
 74
     1
176
     1
 91
        0
176
     1
 64
     7
176
     1
 65
   257
176
     1
 75
     1
176
     1
175
     1
176
     1
 42
1.0
176
     1
 92
        8
176
     1
 66
     7
176
     1
 43
1.0
176
     1
 76
     1
176
     1
 77
     6
176
     1
 78
     2
176
     1
 67
     7
176
     1
 79
     3
176
     1
170
     0
176
     1
171
     0
176
     1
290
     0
176
     1
 93
       13
176
     1
 44
0.0
176
     1
173
     0
176
     1
1001
ACAD
1000
AcDbSavedByObjectVersion
1070
     0
  0
DICTIONARYVAR
  5
1B4D
102
{ACAD_REACTORS
330
1B47
102
}
330
1B47
100
DictionaryVariables
280
     0
  1
1:1
  0
DICTIONARYVAR
  5
1B49
102
{ACAD_REACTORS
330
1B47
102
}
330
1B47
100
DictionaryVariables
280
     0
  1
STANDARD
  0
DICTIONARYVAR
  5
1B48
102
{ACAD_REACTORS
330
1B47
102
}
330
1B47
100
DictionaryVariables
280
     0
  1
STANDARD
  0
DICTIONARYVAR
  5
1B4A
102
{ACAD_REACTORS
330
1B47
102
}
330
1B47
100
DictionaryVariables
280
     0
  1
Imperial24
  0
DICTIONARYVAR
  5
1B4B
102
{ACAD_REACTORS
330
1B47
102
}
330
1B47
100
DictionaryVariables
280
     0
  1
Imperial24
  0
DICTIONARYVAR
  5
1B4F
102
{ACAD_REACTORS
330
1B47
102
}
330
1B47
100
DictionaryVariables
280
     0
  1
1
  0
DICTIONARYVAR
  5
1B50
102
{ACAD_REACTORS
330
1B47
102
}
330
1B47
100
DictionaryVariables
280
     0
  1
15
  0
DICTIONARYVAR
  5
1B4E
102
{ACAD_REACTORS
330
1B47
102
}
330
1B47
100
DictionaryVariables
280
     0
  1
0
  0
DICTIONARYVAR
  5
1B4C
102
{ACAD_REACTORS
330
1B47
102
}
330
1B47
100
DictionaryVariables
280
     0
  1
0
  0
DICTIONARY
  5
1B5F
102
{ACAD_REACTORS
330
1B5D
102
}
330
1B5D
100
AcDbDictionary
281
     1
  0
DICTIONARY
  5
1B5E
102
{ACAD_REACTORS
330
1B5D
102
}
330
1B5D
100
AcDbDictionary
281
     1
  3
2456402700416
350
1B58
  3
2456402700432
350
1B59
  3
2456402700448
350
1B5A
  3
2456402700464
350
1B5B
  3
2456402700480
350
1B5C
  0
DICTIONARY
  5
1B44
330
6A
100
AcDbDictionary
280
     1
281
     1
  3
ACAD_XREC_ROUNDTRIP
360
1B91
  0
DICTIONARY
  5
1A
330
19
100
AcDbDictionary
280
     1
281
     1
  3
BUMPTILE
360
1C
  3
DIFFUSETILE
360
1B
  3
OPACITYTILE
360
1F
  3
REFLECTIONTILE
360
1E
  3
REFRACTIONTILE
360
20
  3
SPECULARTILE
360
1D
  0
DICTIONARY
  5
12
330
11
100
AcDbDictionary
280
     1
281
     1
  3
BUMPTILE
360
14
  3
DIFFUSETILE
360
13
  3
OPACITYTILE
360
17
  3
REFLECTIONTILE
360
16
  3
REFRACTIONTILE
360
18
  3
SPECULARTILE
360
15
  0
DICTIONARY
  5
22
330
21
100
AcDbDictionary
280
     1
281
     1
  3
BUMPTILE
360
24
  3
DIFFUSETILE
360
23
  3
OPACITYTILE
360
27
  3
REFLECTIONTILE
360
26
  3
REFRACTIONTILE
360
28
  3
SPECULARTILE
360
25
  0
DICTIONARY
  5
1B42
330
68
100
AcDbDictionary
280
     1
281
     1
  3
ACAD_XREC_ROUNDTRIP
360
1B90
  0
DICTIONARY
  5
1B55
330
64
100
AcDbDictionary
280
     1
281
     1
  3
ACAD_ROUNDTRIP_2008_TABLESTYLE_CELLSTYLEMAP
360
1B56
  0
DICTIONARY
  5
1B6A
330
2F
100
AcDbDictionary
280
     1
281
     1
  3
ACAD_XREC_ROUNDTRIP
360
1B6B
  0
DICTIONARY
  5
1B68
330
2E
100
AcDbDictionary
280
     1
281
     1
  3
ACAD_XREC_ROUNDTRIP
360
1B69
  0
DICTIONARY
  5
1B76
330
35
100
AcDbDictionary
280
     1
281
     1
  3
ACAD_XREC_ROUNDTRIP
360
1B77
  0
DICTIONARY
  5
1B7E
330
39
100
AcDbDictionary
280
     1
281
     1
  3
ACAD_XREC_ROUNDTRIP
360
1B7F
  0
DICTIONARY
  5
1B70
330
32
100
AcDbDictionary
280
     1
281
     1
  3
ACAD_XREC_ROUNDTRIP
360
1B71
  0
DICTIONARY
  5
1B74
330
34
100
AcDbDictionary
280
     1
281
     1
  3
ACAD_XREC_ROUNDTRIP
360
1B75
  0
DICTIONARY
  5
1B8E
330
41
100
AcDbDictionary
280
     1
281
     1
  3
ACAD_XREC_ROUNDTRIP
360
1B8F
  0
DICTIONARY
  5
1B7C
330
38
100
AcDbDictionary
280
     1
281
     1
  3
ACAD_XREC_ROUNDTRIP
360
1B7D
  0
DICTIONARY
  5
1B60
330
2A
100
AcDbDictionary
280
     1
281
     1
  3
ACAD_XREC_ROUNDTRIP
360
1B61
  0
DICTIONARY
  5
1B62
330
2B
100
AcDbDictionary
280
     1
281
     1
  3
ACAD_XREC_ROUNDTRIP
360
1B63
  0
DICTIONARY
  5
1B64
330
2C
100
AcDbDictionary
280
     1
281
     1
  3
ACAD_XREC_ROUNDTRIP
360
1B65
  0
DICTIONARY
  5
1B66
330
2D
100
AcDbDictionary
280
     1
281
     1
  3
ACAD_XREC_ROUNDTRIP
360
1B67
  0
DICTIONARY
  5
1B6E
330
31
100
AcDbDictionary
280
     1
281
     1
  3
ACAD_XREC_ROUNDTRIP
360
1B6F
  0
DICTIONARY
  5
1B8A
330
3F
100
AcDbDictionary
280
     1
281
     1
  3
ACAD_XREC_ROUNDTRIP
360
1B8B
  0
DICTIONARY
  5
1B7A
330
37
100
AcDbDictionary
280
     1
281
     1
  3
ACAD_XREC_ROUNDTRIP
360
1B7B
  0
DICTIONARY
  5
1B8C
330
40
100
AcDbDictionary
280
     1
281
     1
  3
ACAD_XREC_ROUNDTRIP
360
1B8D
  0
DICTIONARY
  5
1B72
330
33
100
AcDbDictionary
280
     1
281
     1
  3
ACAD_XREC_ROUNDTRIP
360
1B73
  0
DICTIONARY
  5
1B88
330
3E
100
AcDbDictionary
280
     1
281
     1
  3
ACAD_XREC_ROUNDTRIP
360
1B89
  0
DICTIONARY
  5
1B86
330
3D
100
AcDbDictionary
280
     1
281
     1
  3
ACAD_XREC_ROUNDTRIP
360
1B87
  0
DICTIONARY
  5
1B80
330
3A
100
AcDbDictionary
280
     1
281
     1
  3
ACAD_XREC_ROUNDTRIP
360
1B81
  0
DICTIONARY
  5
1B82
330
3B
100
AcDbDictionary
280
     1
281
     1
  3
ACAD_XREC_ROUNDTRIP
360
1B83
  0
DICTIONARY
  5
1B78
330
36
100
AcDbDictionary
280
     1
281
     1
  3
ACAD_XREC_ROUNDTRIP
360
1B79
  0
DICTIONARY
  5
1B6C
330
30
100
AcDbDictionary
280
     1
281
     1
  3
ACAD_XREC_ROUNDTRIP
360
1B6D
  0
DICTIONARY
  5
1B84
330
3C
100
AcDbDictionary
280
     1
281
     1
  3
ACAD_XREC_ROUNDTRIP
360
1B85
  0
XRECORD
  5
1B58
102
{ACAD_REACTORS
330
1B5E
102
}
330
1B5E
100
AcDbXrecord
280
     1
  1
AcDb_Thumbnail_Schema
102
{ATTRRECORD
341
1B59
  2
AcDbDs::TreatedAsObjectData
280
     1
291
     1
102
ATTRRECORD}
102
{ATTRRECORD
341
1B5A
  2
AcDbDs::Legacy
280
     1
291
     1
102
ATTRRECORD}
  2
AcDbDs::ID
280
    10
 91
        8
102
{ATTRRECORD
341
1B5B
  2
AcDs:Indexable
280
     1
291
     1
102
ATTRRECORD}
102
{ATTRRECORD
341
1B5C
  2
AcDbDs::HandleAttribute
280
     7
282
     1
102
ATTRRECORD}
  2
Thumbnail_Data
280
    15
 91
        0
  0
XRECORD
  5
1B59
102
{ACAD_REACTORS
330
1B5E
102
}
330
1B5E
100
AcDbXrecord
280
     1
  1
AcDbDs::TreatedAsObjectDataSchema
  2
AcDbDs::TreatedAsObjectData
280
     1
 91
        0
  0
XRECORD
  5
1B5A
102
{ACAD_REACTORS
330
1B5E
102
}
330
1B5E
100
AcDbXrecord
280
     1
  1
AcDbDs::LegacySchema
  2
AcDbDs::Legacy
280
     1
 91
        0
  0
XRECORD
  5
1B5B
102
{ACAD_REACTORS
330
1B5E
102
}
330
1B5E
100
AcDbXrecord
280
     1
  1
AcDbDs::IndexedPropertySchema
  2
AcDs:Indexable
280
     1
 91
        0
  0
XRECORD
  5
1B5C
102
{ACAD_REACTORS
330
1B5E
102
}
330
1B5E
100
AcDbXrecord
280
     1
  1
AcDbDs::HandleAttributeSchema
  2
AcDbDs::HandleAttribute
280
     7
 91
        1
284
     1
  0
XRECORD
  5
1B91
102
{ACAD_REACTORS
330
1B44
102
}
330
1B44
100
AcDbXrecord
280
     1
102
DISPLAYNAME
  1
Imperial24
102
FLAGS
 90
        0
  0
XRECORD
  5
1C
102
{ACAD_REACTORS
330
1A
102
}
330
1A
100
AcDbXrecord
280
     1
270
     1
271
     1
  0
XRECORD
  5
1B
102
{ACAD_REACTORS
330
1A
102
}
330
1A
100
AcDbXrecord
280
     1
270
     1
271
     1
  0
XRECORD
  5
1F
102
{ACAD_REACTORS
330
1A
102
}
330
1A
100
AcDbXrecord
280
     1
270
     1
271
     1
  0
XRECORD
  5
1E
102
{ACAD_REACTORS
330
1A
102
}
330
1A
100
AcDbXrecord
280
     1
270
     1
271
     1
  0
XRECORD
  5
20
102
{ACAD_REACTORS
330
1A
102
}
330
1A
100
AcDbXrecord
280
     1
270
     1
271
     1
  0
XRECORD
  5
1D
102
{ACAD_REACTORS
330
1A
102
}
330
1A
100
AcDbXrecord
280
     1
270
     1
271
     1
  0
XRECORD
  5
14
102
{ACAD_REACTORS
330
12
102
}
330
12
100
AcDbXrecord
280
     1
270
     1
271
     1
  0
XRECORD
  5
13
102
{ACAD_REACTORS
330
12
102
}
330
12
100
AcDbXrecord
280
     1
270
     1
271
     1
  0
XRECORD
  5
17
102
{ACAD_REACTORS
330
12
102
}
330
12
100
AcDbXrecord
280
     1
270
     1
271
     1
  0
XRECORD
  5
16
102
{ACAD_REACTORS
330
12
102
}
330
12
100
AcDbXrecord
280
     1
270
     1
271
     1
  0
XRECORD
  5
18
102
{ACAD_REACTORS
330
12
102
}
330
12
100
AcDbXrecord
280
     1
270
     1
271
     1
  0
XRECORD
  5
15
102
{ACAD_REACTORS
330
12
102
}
330
12
100
AcDbXrecord
280
     1
270
     1
271
     1
  0
XRECORD
  5
24
102
{ACAD_REACTORS
330
22
102
}
330
22
100
AcDbXrecord
280
     1
270
     1
271
     1
  0
XRECORD
  5
23
102
{ACAD_REACTORS
330
22
102
}
330
22
100
AcDbXrecord
280
     1
270
     1
271
     1
  0
XRECORD
  5
27
102
{ACAD_REACTORS
330
22
102
}
330
22
100
AcDbXrecord
280
     1
270
     1
271
     1
  0
XRECORD
  5
26
102
{ACAD_REACTORS
330
22
102
}
330
22
100
AcDbXrecord
280
     1
270
     1
271
     1
  0
XRECORD
  5
28
102
{ACAD_REACTORS
330
22
102
}
330
22
100
AcDbXrecord
280
     1
270
     1
271
     1
  0
XRECORD
  5
25
102
{ACAD_REACTORS
330
22
102
}
330
22
100
AcDbXrecord
280
     1
270
     1
271
     1
  0
XRECORD
  5
1B90
102
{ACAD_REACTORS
330
1B42
102
}
330
1B42
100
AcDbXrecord
280
     1
102
DISPLAYNAME
  1
Imperial24
102
FLAGS
 90
        0
  0
CELLSTYLEMAP
  5
1B56
102
{ACAD_REACTORS
330
1B55
102
}
330
1B55
100
AcDbCellStyleMap
 90
        3
300
CELLSTYLE
  1
TABLEFORMAT_BEGIN
 90
        5
170
     1
 91
        0
 92
    32768
 62
   257
 93
        1
300
CONTENTFORMAT
  1
CONTENTFORMAT_BEGIN
 90
        0
 91
        0
 92
      512
 93
        0
300

 40
0.0
140
1.0
 94
        5
 62
     0
340
55
144
0.25
309
CONTENTFORMAT_END
171
     0
 94
        0
309
TABLEFORMAT_END
  1
CELLSTYLE_BEGIN
 90
        1
 91
        1
300
_TITLE
309
CELLSTYLE_END
300
CELLSTYLE
  1
TABLEFORMAT_BEGIN
 90
        5
170
     1
 91
        0
 92
        0
 62
   257
 93
        1
300
CONTENTFORMAT
  1
CONTENTFORMAT_BEGIN
 90
        0
 91
        0
 92
      512
 93
        0
300

 40
0.0
140
1.0
 94
        5
 62
     0
340
55
144
0.18
309
CONTENTFORMAT_END
171
     0
 94
        0
309
TABLEFORMAT_END
  1
CELLSTYLE_BEGIN
 90
        2
 91
        1
300
_HEADER
309
CELLSTYLE_END
300
CELLSTYLE
  1
TABLEFORMAT_BEGIN
 90
        5
170
     1
 91
        0
 92
        0
 62
   257
 93
        1
300
CONTENTFORMAT
  1
CONTENTFORMAT_BEGIN
 90
        0
 91
        0
 92
      512
 93
        0
300

 40
0.0
140
1.0
 94
        2
 62
     0
340
55
144
0.18
309
CONTENTFORMAT_END
171
     0
 94
        0
309
TABLEFORMAT_END
  1
CELLSTYLE_BEGIN
 90
        3
 91
        2
300
_DATA
309
CELLSTYLE_END
  0
XRECORD
  5
1B6B
102
{ACAD_REACTORS
330
1B6A
102
}
330
1B6A
100
AcDbXrecord
280
     1
102
RTVSPost2010Prop28
280
     1
102
RTVSPost2010PropOp28
 70
     1
102
RTVSPost2010Prop29
280
     1
102
RTVSPost2010PropOp29
 70
     1
102
RTVSPost2010Prop30
280
     0
102
RTVSPost2010PropOp30
 70
     1
102
RTVSPost2010Prop31
280
     0
102
RTVSPost2010PropOp31
 70
     1
102
RTVSPost2010Prop32
280
     0
102
RTVSPost2010PropOp32
 70
     1
102
RTVSPost2010Prop33
280
     0
102
RTVSPost2010PropOp33
 70
     1
102
RTVSPost2010Prop34
280
     0
102
RTVSPost2010PropOp34
 70
     1
102
RTVSPost2010Prop35
280
     0
102
RTVSPost2010PropOp35
 70
     1
102
RTVSPost2010Prop36
280
     0
102
RTVSPost2010PropOp36
 70
     1
102
RTVSPost2010Prop37
 90
       50
102
RTVSPost2010PropOp37
 70
     1
102
RTVSPost2010Prop38
140
0.0
102
RTVSPost2010PropOp38
 70
     1
102
RTVSPost2010Prop39
140
1.0
102
RTVSPost2010PropOp39
 70
     1
102
RTVSPost2010Prop40
 90
        0
102
RTVSPost2010PropOp40
 70
     1
102
RTVSPost2010Prop41ColorIndex
 90
       18
102
RTVSPost2010Prop41ColorRGB
 90
        0
102
RTVSPost2010PropOp41
 70
     1
102
RTVSPost2010Prop42
 90
       50
102
RTVSPost2010PropOp42
 70
     1
102
RTVSPost2010Prop43
 90
        3
102
RTVSPost2010PropOp43
 70
     1
102
RTVSPost2010Prop44ColorIndex
 90
        5
102
RTVSPost2010Prop44ColorRGB
 90
      255
102
RTVSPost2010PropOp44
 70
     1
102
RTVSPost2010Prop45
280
     0
102
RTVSPost2010PropOp45
 70
     1
102
RTVSPost2010Prop46
 90
       50
102
RTVSPost2010PropOp46
 70
     1
102
RTVSPost2010Prop47
 90
       50
102
RTVSPost2010PropOp47
 70
     1
102
RTVSPost2010Prop48
 90
       50
102
RTVSPost2010PropOp48
 70
     1
102
RTVSPost2010Prop49
280
     0
102
RTVSPost2010PropOp49
 70
     1
102
RTVSPost2010Prop50
 90
       50
102
RTVSPost2010PropOp50
 70
     1
102
RTVSPost2010Prop51ColorIndex
 90
      256
102
RTVSPost2010Prop51ColorRGB
 90
-16777216
102
RTVSPost2010PropOp51
 70
     0
102
RTVSPost2010Prop52
140
1.0
102
RTVSPost2010PropOp52
 70
     0
102
RTVSPost2010Prop53
 90
        2
102
RTVSPost2010PropOp53
 70
     1
102
RTVSPost2010Prop54
  1
strokes_ogs.tif
102
RTVSPost2010PropOp54
 70
     1
102
RTVSPost2010Prop55
280
     0
102
RTVSPost2010PropOp55
 70
     1
102
RTVSPost2010Prop56
140
1.0
102
RTVSPost2010PropOp56
 70
     1
102
RTVSPost2010Prop57
140
1.0
102
RTVSPost2010PropOp57
 70
     1
  0
XRECORD
  5
1B69
102
{ACAD_REACTORS
330
1B68
102
}
330
1B68
100
AcDbXrecord
280
     1
102
RTVSPost2010Prop28
280
     0
102
RTVSPost2010PropOp28
 70
     1
102
RTVSPost2010Prop29
280
     1
102
RTVSPost2010PropOp29
 70
     1
102
RTVSPost2010Prop30
280
     1
102
RTVSPost2010PropOp30
 70
     1
102
RTVSPost2010Prop31
280
     0
102
RTVSPost2010PropOp31
 70
     1
102
RTVSPost2010Prop32
280
     0
102
RTVSPost2010PropOp32
 70
     1
102
RTVSPost2010Prop33
280
     0
102
RTVSPost2010PropOp33
 70
     1
102
RTVSPost2010Prop34
280
     0
102
RTVSPost2010PropOp34
 70
     1
102
RTVSPost2010Prop35
280
     0
102
RTVSPost2010PropOp35
 70
     1
102
RTVSPost2010Prop36
280
     0
102
RTVSPost2010PropOp36
 70
     1
102
RTVSPost2010Prop37
 90
       50
102
RTVSPost2010PropOp37
 70
     1
102
RTVSPost2010Prop38
140
0.0
102
RTVSPost2010PropOp38
 70
     1
102
RTVSPost2010Prop39
140
1.0
102
RTVSPost2010PropOp39
 70
     1
102
RTVSPost2010Prop40
 90
        0
102
RTVSPost2010PropOp40
 70
     1
102
RTVSPost2010Prop41ColorIndex
 90
       18
102
RTVSPost2010Prop41ColorRGB
 90
        0
102
RTVSPost2010PropOp41
 70
     1
102
RTVSPost2010Prop42
 90
       50
102
RTVSPost2010PropOp42
 70
     1
102
RTVSPost2010Prop43
 90
        3
102
RTVSPost2010PropOp43
 70
     1
102
RTVSPost2010Prop44ColorIndex
 90
        5
102
RTVSPost2010Prop44ColorRGB
 90
      255
102
RTVSPost2010PropOp44
 70
     1
102
RTVSPost2010Prop45
280
     0
102
RTVSPost2010PropOp45
 70
     1
102
RTVSPost2010Prop46
 90
       50
102
RTVSPost2010PropOp46
 70
     1
102
RTVSPost2010Prop47
 90
       50
102
RTVSPost2010PropOp47
 70
     1
102
RTVSPost2010Prop48
 90
       50
102
RTVSPost2010PropOp48
 70
     1
102
RTVSPost2010Prop49
280
     0
102
RTVSPost2010PropOp49
 70
     1
102
RTVSPost2010Prop50
 90
       50
102
RTVSPost2010PropOp50
 70
     1
102
RTVSPost2010Prop51ColorIndex
 90
      256
102
RTVSPost2010Prop51ColorRGB
 90
-16777216
102
RTVSPost2010PropOp51
 70
     0
102
RTVSPost2010Prop52
140
1.0
102
RTVSPost2010PropOp52
 70
     0
102
RTVSPost2010Prop53
 90
        2
102
RTVSPost2010PropOp53
 70
     1
102
RTVSPost2010Prop54
  1
strokes_ogs.tif
102
RTVSPost2010PropOp54
 70
     1
102
RTVSPost2010Prop55
280
     0
102
RTVSPost2010PropOp55
 70
     1
102
RTVSPost2010Prop56
140
1.0
102
RTVSPost2010PropOp56
 70
     1
102
RTVSPost2010Prop57
140
1.0
102
RTVSPost2010PropOp57
 70
     1
  0
XRECORD
  5
1B77
102
{ACAD_REACTORS
330
1B76
102
}
330
1B76
100
AcDbXrecord
280
     1
102
RTVSPost2010Prop28
280
     0
102
RTVSPost2010PropOp28
 70
     1
102
RTVSPost2010Prop29
280
     1
102
RTVSPost2010PropOp29
 70
     1
102
RTVSPost2010Prop30
280
     1
102
RTVSPost2010PropOp30
 70
     1
102
RTVSPost2010Prop31
280
     0
102
RTVSPost2010PropOp31
 70
     1
102
RTVSPost2010Prop32
280
     0
102
RTVSPost2010PropOp32
 70
     1
102
RTVSPost2010Prop33
280
     0
102
RTVSPost2010PropOp33
 70
     1
102
RTVSPost2010Prop34
280
     0
102
RTVSPost2010PropOp34
 70
     1
102
RTVSPost2010Prop35
280
     0
102
RTVSPost2010PropOp35
 70
     1
102
RTVSPost2010Prop36
280
     0
102
RTVSPost2010PropOp36
 70
     1
102
RTVSPost2010Prop37
 90
       50
102
RTVSPost2010PropOp37
 70
     1
102
RTVSPost2010Prop38
140
0.0
102
RTVSPost2010PropOp38
 70
     1
102
RTVSPost2010Prop39
140
1.0
102
RTVSPost2010PropOp39
 70
     1
102
RTVSPost2010Prop40
 90
        0
102
RTVSPost2010PropOp40
 70
     1
102
RTVSPost2010Prop41ColorIndex
 90
       18
102
RTVSPost2010Prop41ColorRGB
 90
        0
102
RTVSPost2010PropOp41
 70
     1
102
RTVSPost2010Prop42
 90
       50
102
RTVSPost2010PropOp42
 70
     1
102
RTVSPost2010Prop43
 90
        3
102
RTVSPost2010PropOp43
 70
     1
102
RTVSPost2010Prop44ColorIndex
 90
        5
102
RTVSPost2010Prop44ColorRGB
 90
      255
102
RTVSPost2010PropOp44
 70
     1
102
RTVSPost2010Prop45
280
     0
102
RTVSPost2010PropOp45
 70
     1
102
RTVSPost2010Prop46
 90
       50
102
RTVSPost2010PropOp46
 70
     1
102
RTVSPost2010Prop47
 90
       50
102
RTVSPost2010PropOp47
 70
     1
102
RTVSPost2010Prop48
 90
       50
102
RTVSPost2010PropOp48
 70
     1
102
RTVSPost2010Prop49
280
     0
102
RTVSPost2010PropOp49
 70
     1
102
RTVSPost2010Prop50
 90
       50
102
RTVSPost2010PropOp50
 70
     1
102
RTVSPost2010Prop51ColorIndex
 90
      256
102
RTVSPost2010Prop51ColorRGB
 90
-16777216
102
RTVSPost2010PropOp51
 70
     0
102
RTVSPost2010Prop52
140
1.0
102
RTVSPost2010PropOp52
 70
     0
102
RTVSPost2010Prop53
 90
        2
102
RTVSPost2010PropOp53
 70
     1
102
RTVSPost2010Prop54
  1
strokes_ogs.tif
102
RTVSPost2010PropOp54
 70
     1
102
RTVSPost2010Prop55
280
     0
102
RTVSPost2010PropOp55
 70
     1
102
RTVSPost2010Prop56
140
1.0
102
RTVSPost2010PropOp56
 70
     1
102
RTVSPost2010Prop57
140
1.0
102
RTVSPost2010PropOp57
 70
     1
  0
XRECORD
  5
1B7F
102
{ACAD_REACTORS
330
1B7E
102
}
330
1B7E
100
AcDbXrecord
280
     1
102
RTVSPost2010Prop28
280
     0
102
RTVSPost2010PropOp28
 70
     1
102
RTVSPost2010Prop29
280
     1
102
RTVSPost2010PropOp29
 70
     1
102
RTVSPost2010Prop30
280
     1
102
RTVSPost2010PropOp30
 70
     1
102
RTVSPost2010Prop31
280
     0
102
RTVSPost2010PropOp31
 70
     1
102
RTVSPost2010Prop32
280
     0
102
RTVSPost2010PropOp32
 70
     1
102
RTVSPost2010Prop33
280
     0
102
RTVSPost2010PropOp33
 70
     1
102
RTVSPost2010Prop34
280
     0
102
RTVSPost2010PropOp34
 70
     1
102
RTVSPost2010Prop35
280
     0
102
RTVSPost2010PropOp35
 70
     1
102
RTVSPost2010Prop36
280
     0
102
RTVSPost2010PropOp36
 70
     1
102
RTVSPost2010Prop37
 90
       50
102
RTVSPost2010PropOp37
 70
     1
102
RTVSPost2010Prop38
140
0.0
102
RTVSPost2010PropOp38
 70
     1
102
RTVSPost2010Prop39
140
1.0
102
RTVSPost2010PropOp39
 70
     1
102
RTVSPost2010Prop40
 90
        0
102
RTVSPost2010PropOp40
 70
     1
102
RTVSPost2010Prop41ColorIndex
 90
       18
102
RTVSPost2010Prop41ColorRGB
 90
        0
102
RTVSPost2010PropOp41
 70
     1
102
RTVSPost2010Prop42
 90
       50
102
RTVSPost2010PropOp42
 70
     1
102
RTVSPost2010Prop43
 90
        3
102
RTVSPost2010PropOp43
 70
     1
102
RTVSPost2010Prop44ColorIndex
 90
        5
102
RTVSPost2010Prop44ColorRGB
 90
      255
102
RTVSPost2010PropOp44
 70
     1
102
RTVSPost2010Prop45
280
     0
102
RTVSPost2010PropOp45
 70
     1
102
RTVSPost2010Prop46
 90
       50
102
RTVSPost2010PropOp46
 70
     1
102
RTVSPost2010Prop47
 90
       50
102
RTVSPost2010PropOp47
 70
     1
102
RTVSPost2010Prop48
 90
       50
102
RTVSPost2010PropOp48
 70
     1
102
RTVSPost2010Prop49
280
     0
102
RTVSPost2010PropOp49
 70
     1
102
RTVSPost2010Prop50
 90
       50
102
RTVSPost2010PropOp50
 70
     1
102
RTVSPost2010Prop51ColorIndex
 90
      256
102
RTVSPost2010Prop51ColorRGB
 90
-16777216
102
RTVSPost2010PropOp51
 70
     0
102
RTVSPost2010Prop52
140
1.0
102
RTVSPost2010PropOp52
 70
     0
102
RTVSPost2010Prop53
 90
        2
102
RTVSPost2010PropOp53
 70
     1
102
RTVSPost2010Prop54
  1
strokes_ogs.tif
102
RTVSPost2010PropOp54
 70
     1
102
RTVSPost2010Prop55
280
     0
102
RTVSPost2010PropOp55
 70
     1
102
RTVSPost2010Prop56
140
1.0
102
RTVSPost2010PropOp56
 70
     1
102
RTVSPost2010Prop57
140
1.0
102
RTVSPost2010PropOp57
 70
     1
  0
XRECORD
  5
1B71
102
{ACAD_REACTORS
330
1B70
102
}
330
1B70
100
AcDbXrecord
280
     1
102
RTVSPost2010Prop28
280
     0
102
RTVSPost2010PropOp28
 70
     1
102
RTVSPost2010Prop29
280
     1
102
RTVSPost2010PropOp29
 70
     1
102
RTVSPost2010Prop30
280
     1
102
RTVSPost2010PropOp30
 70
     1
102
RTVSPost2010Prop31
280
     0
102
RTVSPost2010PropOp31
 70
     1
102
RTVSPost2010Prop32
280
     0
102
RTVSPost2010PropOp32
 70
     1
102
RTVSPost2010Prop33
280
     0
102
RTVSPost2010PropOp33
 70
     1
102
RTVSPost2010Prop34
280
     0
102
RTVSPost2010PropOp34
 70
     1
102
RTVSPost2010Prop35
280
     0
102
RTVSPost2010PropOp35
 70
     1
102
RTVSPost2010Prop36
280
     0
102
RTVSPost2010PropOp36
 70
     1
102
RTVSPost2010Prop37
 90
       50
102
RTVSPost2010PropOp37
 70
     1
102
RTVSPost2010Prop38
140
0.0
102
RTVSPost2010PropOp38
 70
     1
102
RTVSPost2010Prop39
140
1.0
102
RTVSPost2010PropOp39
 70
     1
102
RTVSPost2010Prop40
 90
        0
102
RTVSPost2010PropOp40
 70
     1
102
RTVSPost2010Prop41ColorIndex
 90
       18
102
RTVSPost2010Prop41ColorRGB
 90
        0
102
RTVSPost2010PropOp41
 70
     1
102
RTVSPost2010Prop42
 90
       50
102
RTVSPost2010PropOp42
 70
     1
102
RTVSPost2010Prop43
 90
        3
102
RTVSPost2010PropOp43
 70
     1
102
RTVSPost2010Prop44ColorIndex
 90
        5
102
RTVSPost2010Prop44ColorRGB
 90
      255
102
RTVSPost2010PropOp44
 70
     1
102
RTVSPost2010Prop45
280
     0
102
RTVSPost2010PropOp45
 70
     1
102
RTVSPost2010Prop46
 90
       50
102
RTVSPost2010PropOp46
 70
     1
102
RTVSPost2010Prop47
 90
       50
102
RTVSPost2010PropOp47
 70
     1
102
RTVSPost2010Prop48
 90
       50
102
RTVSPost2010PropOp48
 70
     1
102
RTVSPost2010Prop49
280
     0
102
RTVSPost2010PropOp49
 70
     1
102
RTVSPost2010Prop50
 90
       50
102
RTVSPost2010PropOp50
 70
     1
102
RTVSPost2010Prop51ColorIndex
 90
      256
102
RTVSPost2010Prop51ColorRGB
 90
-16777216
102
RTVSPost2010PropOp51
 70
     0
102
RTVSPost2010Prop52
140
1.0
102
RTVSPost2010PropOp52
 70
     0
102
RTVSPost2010Prop53
 90
        2
102
RTVSPost2010PropOp53
 70
     1
102
RTVSPost2010Prop54
  1
strokes_ogs.tif
102
RTVSPost2010PropOp54
 70
     1
102
RTVSPost2010Prop55
280
     0
102
RTVSPost2010PropOp55
 70
     1
102
RTVSPost2010Prop56
140
1.0
102
RTVSPost2010PropOp56
 70
     1
102
RTVSPost2010Prop57
140
1.0
102
RTVSPost2010PropOp57
 70
     1
  0
XRECORD
  5
1B75
102
{ACAD_REACTORS
330
1B74
102
}
330
1B74
100
AcDbXrecord
280
     1
102
RTVSPost2010Prop28
280
     0
102
RTVSPost2010PropOp28
 70
     1
102
RTVSPost2010Prop29
280
     1
102
RTVSPost2010PropOp29
 70
     1
102
RTVSPost2010Prop30
280
     1
102
RTVSPost2010PropOp30
 70
     1
102
RTVSPost2010Prop31
280
     0
102
RTVSPost2010PropOp31
 70
     1
102
RTVSPost2010Prop32
280
     0
102
RTVSPost2010PropOp32
 70
     1
102
RTVSPost2010Prop33
280
     0
102
RTVSPost2010PropOp33
 70
     1
102
RTVSPost2010Prop34
280
     0
102
RTVSPost2010PropOp34
 70
     1
102
RTVSPost2010Prop35
280
     0
102
RTVSPost2010PropOp35
 70
     1
102
RTVSPost2010Prop36
280
     0
102
RTVSPost2010PropOp36
 70
     1
102
RTVSPost2010Prop37
 90
       50
102
RTVSPost2010PropOp37
 70
     1
102
RTVSPost2010Prop38
140
0.0
102
RTVSPost2010PropOp38
 70
     1
102
RTVSPost2010Prop39
140
1.0
102
RTVSPost2010PropOp39
 70
     1
102
RTVSPost2010Prop40
 90
        0
102
RTVSPost2010PropOp40
 70
     1
102
RTVSPost2010Prop41ColorIndex
 90
       18
102
RTVSPost2010Prop41ColorRGB
 90
        0
102
RTVSPost2010PropOp41
 70
     1
102
RTVSPost2010Prop42
 90
       50
102
RTVSPost2010PropOp42
 70
     1
102
RTVSPost2010Prop43
 90
        3
102
RTVSPost2010PropOp43
 70
     1
102
RTVSPost2010Prop44ColorIndex
 90
        5
102
RTVSPost2010Prop44ColorRGB
 90
      255
102
RTVSPost2010PropOp44
 70
     1
102
RTVSPost2010Prop45
280
     0
102
RTVSPost2010PropOp45
 70
     1
102
RTVSPost2010Prop46
 90
       50
102
RTVSPost2010PropOp46
 70
     1
102
RTVSPost2010Prop47
 90
       50
102
RTVSPost2010PropOp47
 70
     1
102
RTVSPost2010Prop48
 90
       50
102
RTVSPost2010PropOp48
 70
     1
102
RTVSPost2010Prop49
280
     0
102
RTVSPost2010PropOp49
 70
     1
102
RTVSPost2010Prop50
 90
       50
102
RTVSPost2010PropOp50
 70
     1
102
RTVSPost2010Prop51ColorIndex
 90
      256
102
RTVSPost2010Prop51ColorRGB
 90
-16777216
102
RTVSPost2010PropOp51
 70
     0
102
RTVSPost2010Prop52
140
1.0
102
RTVSPost2010PropOp52
 70
     0
102
RTVSPost2010Prop53
 90
        2
102
RTVSPost2010PropOp53
 70
     1
102
RTVSPost2010Prop54
  1
strokes_ogs.tif
102
RTVSPost2010PropOp54
 70
     1
102
RTVSPost2010Prop55
280
     0
102
RTVSPost2010PropOp55
 70
     1
102
RTVSPost2010Prop56
140
1.0
102
RTVSPost2010PropOp56
 70
     1
102
RTVSPost2010Prop57
140
1.0
102
RTVSPost2010PropOp57
 70
     1
  0
XRECORD
  5
1B8F
102
{ACAD_REACTORS
330
1B8E
102
}
330
1B8E
100
AcDbXrecord
280
     1
102
RTVSPost2010Prop28
280
     0
102
RTVSPost2010PropOp28
 70
     1
102
RTVSPost2010Prop29
280
     1
102
RTVSPost2010PropOp29
 70
     1
102
RTVSPost2010Prop30
280
     1
102
RTVSPost2010PropOp30
 70
     1
102
RTVSPost2010Prop31
280
     0
102
RTVSPost2010PropOp31
 70
     1
102
RTVSPost2010Prop32
280
     0
102
RTVSPost2010PropOp32
 70
     1
102
RTVSPost2010Prop33
280
     0
102
RTVSPost2010PropOp33
 70
     1
102
RTVSPost2010Prop34
280
     0
102
RTVSPost2010PropOp34
 70
     1
102
RTVSPost2010Prop35
280
     0
102
RTVSPost2010PropOp35
 70
     1
102
RTVSPost2010Prop36
280
     0
102
RTVSPost2010PropOp36
 70
     1
102
RTVSPost2010Prop37
 90
       50
102
RTVSPost2010PropOp37
 70
     0
102
RTVSPost2010Prop38
140
0.0
102
RTVSPost2010PropOp38
 70
     0
102
RTVSPost2010Prop39
140
1.0
102
RTVSPost2010PropOp39
 70
     0
102
RTVSPost2010Prop40
 90
        0
102
RTVSPost2010PropOp40
 70
     0
102
RTVSPost2010Prop41ColorIndex
 90
       18
102
RTVSPost2010Prop41ColorRGB
 90
        0
102
RTVSPost2010PropOp41
 70
     0
102
RTVSPost2010Prop42
 90
       50
102
RTVSPost2010PropOp42
 70
     0
102
RTVSPost2010Prop43
 90
        3
102
RTVSPost2010PropOp43
 70
     0
102
RTVSPost2010Prop44ColorIndex
 90
        5
102
RTVSPost2010Prop44ColorRGB
 90
      255
102
RTVSPost2010PropOp44
 70
     0
102
RTVSPost2010Prop45
280
     0
102
RTVSPost2010PropOp45
 70
     1
102
RTVSPost2010Prop46
 90
       50
102
RTVSPost2010PropOp46
 70
     0
102
RTVSPost2010Prop47
 90
       50
102
RTVSPost2010PropOp47
 70
     0
102
RTVSPost2010Prop48
 90
       50
102
RTVSPost2010PropOp48
 70
     0
102
RTVSPost2010Prop49
280
     0
102
RTVSPost2010PropOp49
 70
     1
102
RTVSPost2010Prop50
 90
       50
102
RTVSPost2010PropOp50
 70
     0
102
RTVSPost2010Prop51ColorIndex
 90
      256
102
RTVSPost2010Prop51ColorRGB
 90
-16777216
102
RTVSPost2010PropOp51
 70
     0
102
RTVSPost2010Prop52
140
1.0
102
RTVSPost2010PropOp52
 70
     0
102
RTVSPost2010Prop53
 90
        2
102
RTVSPost2010PropOp53
 70
     0
102
RTVSPost2010Prop54
  1
strokes_ogs.tif
102
RTVSPost2010PropOp54
 70
     0
102
RTVSPost2010Prop55
280
     0
102
RTVSPost2010PropOp55
 70
     1
102
RTVSPost2010Prop56
140
1.0
102
RTVSPost2010PropOp56
 70
     0
102
RTVSPost2010Prop57
140
1.0
102
RTVSPost2010PropOp57
 70
     0
  0
XRECORD
  5
1B7D
102
{ACAD_REACTORS
330
1B7C
102
}
330
1B7C
100
AcDbXrecord
280
     1
102
RTVSPost2010Prop28
280
     0
102
RTVSPost2010PropOp28
 70
     1
102
RTVSPost2010Prop29
280
     1
102
RTVSPost2010PropOp29
 70
     1
102
RTVSPost2010Prop30
280
     1
102
RTVSPost2010PropOp30
 70
     1
102
RTVSPost2010Prop31
280
     0
102
RTVSPost2010PropOp31
 70
     1
102
RTVSPost2010Prop32
280
     0
102
RTVSPost2010PropOp32
 70
     1
102
RTVSPost2010Prop33
280
     0
102
RTVSPost2010PropOp33
 70
     1
102
RTVSPost2010Prop34
280
     0
102
RTVSPost2010PropOp34
 70
     1
102
RTVSPost2010Prop35
280
     0
102
RTVSPost2010PropOp35
 70
     1
102
RTVSPost2010Prop36
280
     0
102
RTVSPost2010PropOp36
 70
     1
102
RTVSPost2010Prop37
 90
       50
102
RTVSPost2010PropOp37
 70
     1
102
RTVSPost2010Prop38
140
0.0
102
RTVSPost2010PropOp38
 70
     1
102
RTVSPost2010Prop39
140
1.0
102
RTVSPost2010PropOp39
 70
     1
102
RTVSPost2010Prop40
 90
        0
102
RTVSPost2010PropOp40
 70
     1
102
RTVSPost2010Prop41ColorIndex
 90
       18
102
RTVSPost2010Prop41ColorRGB
 90
        0
102
RTVSPost2010PropOp41
 70
     1
102
RTVSPost2010Prop42
 90
       50
102
RTVSPost2010PropOp42
 70
     1
102
RTVSPost2010Prop43
 90
        3
102
RTVSPost2010PropOp43
 70
     1
102
RTVSPost2010Prop44ColorIndex
 90
        5
102
RTVSPost2010Prop44ColorRGB
 90
      255
102
RTVSPost2010PropOp44
 70
     1
102
RTVSPost2010Prop45
280
     0
102
RTVSPost2010PropOp45
 70
     1
102
RTVSPost2010Prop46
 90
       50
102
RTVSPost2010PropOp46
 70
     1
102
RTVSPost2010Prop47
 90
       50
102
RTVSPost2010PropOp47
 70
     1
102
RTVSPost2010Prop48
 90
       50
102
RTVSPost2010PropOp48
 70
     1
102
RTVSPost2010Prop49
280
     0
102
RTVSPost2010PropOp49
 70
     1
102
RTVSPost2010Prop50
 90
       50
102
RTVSPost2010PropOp50
 70
     1
102
RTVSPost2010Prop51ColorIndex
 90
      256
102
RTVSPost2010Prop51ColorRGB
 90
-16777216
102
RTVSPost2010PropOp51
 70
     0
102
RTVSPost2010Prop52
140
1.0
102
RTVSPost2010PropOp52
 70
     0
102
RTVSPost2010Prop53
 90
        2
102
RTVSPost2010PropOp53
 70
     1
102
RTVSPost2010Prop54
  1
strokes_ogs.tif
102
RTVSPost2010PropOp54
 70
     1
102
RTVSPost2010Prop55
280
     0
102
RTVSPost2010PropOp55
 70
     1
102
RTVSPost2010Prop56
140
1.0
102
RTVSPost2010PropOp56
 70
     1
102
RTVSPost2010Prop57
140
1.0
102
RTVSPost2010PropOp57
 70
     1
  0
XRECORD
  5
1B61
102
{ACAD_REACTORS
330
1B60
102
}
330
1B60
100
AcDbXrecord
280
     1
102
RTVSPost2010Prop28
280
     0
102
RTVSPost2010PropOp28
 70
     1
102
RTVSPost2010Prop29
280
     1
102
RTVSPost2010PropOp29
 70
     1
102
RTVSPost2010Prop30
280
     1
102
RTVSPost2010PropOp30
 70
     1
102
RTVSPost2010Prop31
280
     0
102
RTVSPost2010PropOp31
 70
     1
102
RTVSPost2010Prop32
280
     0
102
RTVSPost2010PropOp32
 70
     1
102
RTVSPost2010Prop33
280
     0
102
RTVSPost2010PropOp33
 70
     1
102
RTVSPost2010Prop34
280
     0
102
RTVSPost2010PropOp34
 70
     1
102
RTVSPost2010Prop35
280
     0
102
RTVSPost2010PropOp35
 70
     1
102
RTVSPost2010Prop36
280
     0
102
RTVSPost2010PropOp36
 70
     1
102
RTVSPost2010Prop37
 90
       50
102
RTVSPost2010PropOp37
 70
     1
102
RTVSPost2010Prop38
140
0.0
102
RTVSPost2010PropOp38
 70
     1
102
RTVSPost2010Prop39
140
1.0
102
RTVSPost2010PropOp39
 70
     1
102
RTVSPost2010Prop40
 90
        0
102
RTVSPost2010PropOp40
 70
     1
102
RTVSPost2010Prop41ColorIndex
 90
       18
102
RTVSPost2010Prop41ColorRGB
 90
        0
102
RTVSPost2010PropOp41
 70
     1
102
RTVSPost2010Prop42
 90
       50
102
RTVSPost2010PropOp42
 70
     1
102
RTVSPost2010Prop43
 90
        3
102
RTVSPost2010PropOp43
 70
     1
102
RTVSPost2010Prop44ColorIndex
 90
        5
102
RTVSPost2010Prop44ColorRGB
 90
      255
102
RTVSPost2010PropOp44
 70
     1
102
RTVSPost2010Prop45
280
     0
102
RTVSPost2010PropOp45
 70
     1
102
RTVSPost2010Prop46
 90
       50
102
RTVSPost2010PropOp46
 70
     1
102
RTVSPost2010Prop47
 90
       50
102
RTVSPost2010PropOp47
 70
     1
102
RTVSPost2010Prop48
 90
       50
102
RTVSPost2010PropOp48
 70
     1
102
RTVSPost2010Prop49
280
     0
102
RTVSPost2010PropOp49
 70
     1
102
RTVSPost2010Prop50
 90
       50
102
RTVSPost2010PropOp50
 70
     1
102
RTVSPost2010Prop51ColorIndex
 90
      256
102
RTVSPost2010Prop51ColorRGB
 90
-16777216
102
RTVSPost2010PropOp51
 70
     0
102
RTVSPost2010Prop52
140
1.0
102
RTVSPost2010PropOp52
 70
     0
102
RTVSPost2010Prop53
 90
        2
102
RTVSPost2010PropOp53
 70
     1
102
RTVSPost2010Prop54
  1
strokes_ogs.tif
102
RTVSPost2010PropOp54
 70
     1
102
RTVSPost2010Prop55
280
     0
102
RTVSPost2010PropOp55
 70
     1
102
RTVSPost2010Prop56
140
1.0
102
RTVSPost2010PropOp56
 70
     1
102
RTVSPost2010Prop57
140
1.0
102
RTVSPost2010PropOp57
 70
     1
  0
XRECORD
  5
1B63
102
{ACAD_REACTORS
330
1B62
102
}
330
1B62
100
AcDbXrecord
280
     1
102
RTVSPost2010Prop28
280
     0
102
RTVSPost2010PropOp28
 70
     1
102
RTVSPost2010Prop29
280
     1
102
RTVSPost2010PropOp29
 70
     1
102
RTVSPost2010Prop30
280
     1
102
RTVSPost2010PropOp30
 70
     1
102
RTVSPost2010Prop31
280
     0
102
RTVSPost2010PropOp31
 70
     1
102
RTVSPost2010Prop32
280
     0
102
RTVSPost2010PropOp32
 70
     1
102
RTVSPost2010Prop33
280
     0
102
RTVSPost2010PropOp33
 70
     1
102
RTVSPost2010Prop34
280
     0
102
RTVSPost2010PropOp34
 70
     1
102
RTVSPost2010Prop35
280
     0
102
RTVSPost2010PropOp35
 70
     1
102
RTVSPost2010Prop36
280
     0
102
RTVSPost2010PropOp36
 70
     1
102
RTVSPost2010Prop37
 90
       50
102
RTVSPost2010PropOp37
 70
     1
102
RTVSPost2010Prop38
140
0.0
102
RTVSPost2010PropOp38
 70
     1
102
RTVSPost2010Prop39
140
1.0
102
RTVSPost2010PropOp39
 70
     1
102
RTVSPost2010Prop40
 90
        0
102
RTVSPost2010PropOp40
 70
     1
102
RTVSPost2010Prop41ColorIndex
 90
       18
102
RTVSPost2010Prop41ColorRGB
 90
        0
102
RTVSPost2010PropOp41
 70
     1
102
RTVSPost2010Prop42
 90
       50
102
RTVSPost2010PropOp42
 70
     1
102
RTVSPost2010Prop43
 90
        3
102
RTVSPost2010PropOp43
 70
     1
102
RTVSPost2010Prop44ColorIndex
 90
        5
102
RTVSPost2010Prop44ColorRGB
 90
      255
102
RTVSPost2010PropOp44
 70
     1
102
RTVSPost2010Prop45
280
     0
102
RTVSPost2010PropOp45
 70
     1
102
RTVSPost2010Prop46
 90
       50
102
RTVSPost2010PropOp46
 70
     1
102
RTVSPost2010Prop47
 90
       50
102
RTVSPost2010PropOp47
 70
     1
102
RTVSPost2010Prop48
 90
       50
102
RTVSPost2010PropOp48
 70
     1
102
RTVSPost2010Prop49
280
     0
102
RTVSPost2010PropOp49
 70
     1
102
RTVSPost2010Prop50
 90
       50
102
RTVSPost2010PropOp50
 70
     1
102
RTVSPost2010Prop51ColorIndex
 90
      256
102
RTVSPost2010Prop51ColorRGB
 90
-16777216
102
RTVSPost2010PropOp51
 70
     0
102
RTVSPost2010Prop52
140
1.0
102
RTVSPost2010PropOp52
 70
     0
102
RTVSPost2010Prop53
 90
        2
102
RTVSPost2010PropOp53
 70
     1
102
RTVSPost2010Prop54
  1
strokes_ogs.tif
102
RTVSPost2010PropOp54
 70
     1
102
RTVSPost2010Prop55
280
     0
102
RTVSPost2010PropOp55
 70
     1
102
RTVSPost2010Prop56
140
1.0
102
RTVSPost2010PropOp56
 70
     1
102
RTVSPost2010Prop57
140
1.0
102
RTVSPost2010PropOp57
 70
     1
  0
XRECORD
  5
1B65
102
{ACAD_REACTORS
330
1B64
102
}
330
1B64
100
AcDbXrecord
280
     1
102
RTVSPost2010Prop28
280
     0
102
RTVSPost2010PropOp28
 70
     1
102
RTVSPost2010Prop29
280
     1
102
RTVSPost2010PropOp29
 70
     1
102
RTVSPost2010Prop30
280
     1
102
RTVSPost2010PropOp30
 70
     1
102
RTVSPost2010Prop31
280
     0
102
RTVSPost2010PropOp31
 70
     1
102
RTVSPost2010Prop32
280
     0
102
RTVSPost2010PropOp32
 70
     1
102
RTVSPost2010Prop33
280
     0
102
RTVSPost2010PropOp33
 70
     1
102
RTVSPost2010Prop34
280
     0
102
RTVSPost2010PropOp34
 70
     1
102
RTVSPost2010Prop35
280
     0
102
RTVSPost2010PropOp35
 70
     1
102
RTVSPost2010Prop36
280
     0
102
RTVSPost2010PropOp36
 70
     1
102
RTVSPost2010Prop37
 90
       50
102
RTVSPost2010PropOp37
 70
     1
102
RTVSPost2010Prop38
140
0.0
102
RTVSPost2010PropOp38
 70
     1
102
RTVSPost2010Prop39
140
1.0
102
RTVSPost2010PropOp39
 70
     1
102
RTVSPost2010Prop40
 90
        0
102
RTVSPost2010PropOp40
 70
     1
102
RTVSPost2010Prop41ColorIndex
 90
       18
102
RTVSPost2010Prop41ColorRGB
 90
        0
102
RTVSPost2010PropOp41
 70
     1
102
RTVSPost2010Prop42
 90
       50
102
RTVSPost2010PropOp42
 70
     1
102
RTVSPost2010Prop43
 90
        3
102
RTVSPost2010PropOp43
 70
     1
102
RTVSPost2010Prop44ColorIndex
 90
        5
102
RTVSPost2010Prop44ColorRGB
 90
      255
102
RTVSPost2010PropOp44
 70
     1
102
RTVSPost2010Prop45
280
     0
102
RTVSPost2010PropOp45
 70
     1
102
RTVSPost2010Prop46
 90
       50
102
RTVSPost2010PropOp46
 70
     1
102
RTVSPost2010Prop47
 90
       50
102
RTVSPost2010PropOp47
 70
     1
102
RTVSPost2010Prop48
 90
       50
102
RTVSPost2010PropOp48
 70
     1
102
RTVSPost2010Prop49
280
     0
102
RTVSPost2010PropOp49
 70
     1
102
RTVSPost2010Prop50
 90
       50
102
RTVSPost2010PropOp50
 70
     1
102
RTVSPost2010Prop51ColorIndex
 90
      256
102
RTVSPost2010Prop51ColorRGB
 90
-16777216
102
RTVSPost2010PropOp51
 70
     0
102
RTVSPost2010Prop52
140
1.0
102
RTVSPost2010PropOp52
 70
     0
102
RTVSPost2010Prop53
 90
        2
102
RTVSPost2010PropOp53
 70
     1
102
RTVSPost2010Prop54
  1
strokes_ogs.tif
102
RTVSPost2010PropOp54
 70
     1
102
RTVSPost2010Prop55
280
     0
102
RTVSPost2010PropOp55
 70
     1
102
RTVSPost2010Prop56
140
1.0
102
RTVSPost2010PropOp56
 70
     1
102
RTVSPost2010Prop57
140
1.0
102
RTVSPost2010PropOp57
 70
     1
  0
XRECORD
  5
1B67
102
{ACAD_REACTORS
330
1B66
102
}
330
1B66
100
AcDbXrecord
280
     1
102
RTVSPost2010Prop28
280
     0
102
RTVSPost2010PropOp28
 70
     1
102
RTVSPost2010Prop29
280
     1
102
RTVSPost2010PropOp29
 70
     1
102
RTVSPost2010Prop30
280
     1
102
RTVSPost2010PropOp30
 70
     1
102
RTVSPost2010Prop31
280
     0
102
RTVSPost2010PropOp31
 70
     1
102
RTVSPost2010Prop32
280
     0
102
RTVSPost2010PropOp32
 70
     1
102
RTVSPost2010Prop33
280
     0
102
RTVSPost2010PropOp33
 70
     1
102
RTVSPost2010Prop34
280
     0
102
RTVSPost2010PropOp34
 70
     1
102
RTVSPost2010Prop35
280
     0
102
RTVSPost2010PropOp35
 70
     1
102
RTVSPost2010Prop36
280
     0
102
RTVSPost2010PropOp36
 70
     1
102
RTVSPost2010Prop37
 90
       50
102
RTVSPost2010PropOp37
 70
     1
102
RTVSPost2010Prop38
140
0.0
102
RTVSPost2010PropOp38
 70
     1
102
RTVSPost2010Prop39
140
1.0
102
RTVSPost2010PropOp39
 70
     1
102
RTVSPost2010Prop40
 90
        0
102
RTVSPost2010PropOp40
 70
     1
102
RTVSPost2010Prop41ColorIndex
 90
       18
102
RTVSPost2010Prop41ColorRGB
 90
        0
102
RTVSPost2010PropOp41
 70
     1
102
RTVSPost2010Prop42
 90
       50
102
RTVSPost2010PropOp42
 70
     1
102
RTVSPost2010Prop43
 90
        3
102
RTVSPost2010PropOp43
 70
     1
102
RTVSPost2010Prop44ColorIndex
 90
        5
102
RTVSPost2010Prop44ColorRGB
 90
      255
102
RTVSPost2010PropOp44
 70
     1
102
RTVSPost2010Prop45
280
     0
102
RTVSPost2010PropOp45
 70
     1
102
RTVSPost2010Prop46
 90
       50
102
RTVSPost2010PropOp46
 70
     1
102
RTVSPost2010Prop47
 90
       50
102
RTVSPost2010PropOp47
 70
     1
102
RTVSPost2010Prop48
 90
       50
102
RTVSPost2010PropOp48
 70
     1
102
RTVSPost2010Prop49
280
     0
102
RTVSPost2010PropOp49
 70
     1
102
RTVSPost2010Prop50
 90
       50
102
RTVSPost2010PropOp50
 70
     1
102
RTVSPost2010Prop51ColorIndex
 90
      256
102
RTVSPost2010Prop51ColorRGB
 90
-16777216
102
RTVSPost2010PropOp51
 70
     0
102
RTVSPost2010Prop52
140
1.0
102
RTVSPost2010PropOp52
 70
     0
102
RTVSPost2010Prop53
 90
        2
102
RTVSPost2010PropOp53
 70
     1
102
RTVSPost2010Prop54
  1
strokes_ogs.tif
102
RTVSPost2010PropOp54
 70
     1
102
RTVSPost2010Prop55
280
     0
102
RTVSPost2010PropOp55
 70
     1
102
RTVSPost2010Prop56
140
1.0
102
RTVSPost2010PropOp56
 70
     1
102
RTVSPost2010Prop57
140
1.0
102
RTVSPost2010PropOp57
 70
     1
  0
XRECORD
  5
1B6F
102
{ACAD_REACTORS
330
1B6E
102
}
330
1B6E
100
AcDbXrecord
280
     1
102
RTVSPost2010Prop28
280
     0
102
RTVSPost2010PropOp28
 70
     1
102
RTVSPost2010Prop29
280
     1
102
RTVSPost2010PropOp29
 70
     1
102
RTVSPost2010Prop30
280
     1
102
RTVSPost2010PropOp30
 70
     1
102
RTVSPost2010Prop31
280
     0
102
RTVSPost2010PropOp31
 70
     1
102
RTVSPost2010Prop32
280
     0
102
RTVSPost2010PropOp32
 70
     1
102
RTVSPost2010Prop33
280
     0
102
RTVSPost2010PropOp33
 70
     1
102
RTVSPost2010Prop34
280
     0
102
RTVSPost2010PropOp34
 70
     1
102
RTVSPost2010Prop35
280
     0
102
RTVSPost2010PropOp35
 70
     1
102
RTVSPost2010Prop36
280
     0
102
RTVSPost2010PropOp36
 70
     1
102
RTVSPost2010Prop37
 90
       50
102
RTVSPost2010PropOp37
 70
     1
102
RTVSPost2010Prop38
140
0.0
102
RTVSPost2010PropOp38
 70
     1
102
RTVSPost2010Prop39
140
1.0
102
RTVSPost2010PropOp39
 70
     1
102
RTVSPost2010Prop40
 90
        0
102
RTVSPost2010PropOp40
 70
     1
102
RTVSPost2010Prop41ColorIndex
 90
       18
102
RTVSPost2010Prop41ColorRGB
 90
        0
102
RTVSPost2010PropOp41
 70
     1
102
RTVSPost2010Prop42
 90
       50
102
RTVSPost2010PropOp42
 70
     1
102
RTVSPost2010Prop43
 90
        3
102
RTVSPost2010PropOp43
 70
     1
102
RTVSPost2010Prop44ColorIndex
 90
        5
102
RTVSPost2010Prop44ColorRGB
 90
      255
102
RTVSPost2010PropOp44
 70
     1
102
RTVSPost2010Prop45
280
     0
102
RTVSPost2010PropOp45
 70
     1
102
RTVSPost2010Prop46
 90
       50
102
RTVSPost2010PropOp46
 70
     1
102
RTVSPost2010Prop47
 90
       50
102
RTVSPost2010PropOp47
 70
     1
102
RTVSPost2010Prop48
 90
       50
102
RTVSPost2010PropOp48
 70
     1
102
RTVSPost2010Prop49
280
     0
102
RTVSPost2010PropOp49
 70
     1
102
RTVSPost2010Prop50
 90
       50
102
RTVSPost2010PropOp50
 70
     1
102
RTVSPost2010Prop51ColorIndex
 90
      256
102
RTVSPost2010Prop51ColorRGB
 90
-16777216
102
RTVSPost2010PropOp51
 70
     0
102
RTVSPost2010Prop52
140
1.0
102
RTVSPost2010PropOp52
 70
     0
102
RTVSPost2010Prop53
 90
        2
102
RTVSPost2010PropOp53
 70
     1
102
RTVSPost2010Prop54
  1
strokes_ogs.tif
102
RTVSPost2010PropOp54
 70
     1
102
RTVSPost2010Prop55
280
     0
102
RTVSPost2010PropOp55
 70
     1
102
RTVSPost2010Prop56
140
1.0
102
RTVSPost2010PropOp56
 70
     1
102
RTVSPost2010Prop57
140
1.0
102
RTVSPost2010PropOp57
 70
     1
  0
XRECORD
  5
1B8B
102
{ACAD_REACTORS
330
1B8A
102
}
330
1B8A
100
AcDbXrecord
280
     1
102
RTVSPost2010Prop28
280
     0
102
RTVSPost2010PropOp28
 70
     1
102
RTVSPost2010Prop29
280
     1
102
RTVSPost2010PropOp29
 70
     1
102
RTVSPost2010Prop30
280
     1
102
RTVSPost2010PropOp30
 70
     1
102
RTVSPost2010Prop31
280
     0
102
RTVSPost2010PropOp31
 70
     1
102
RTVSPost2010Prop32
280
     0
102
RTVSPost2010PropOp32
 70
     1
102
RTVSPost2010Prop33
280
     0
102
RTVSPost2010PropOp33
 70
     1
102
RTVSPost2010Prop34
280
     0
102
RTVSPost2010PropOp34
 70
     1
102
RTVSPost2010Prop35
280
     0
102
RTVSPost2010PropOp35
 70
     1
102
RTVSPost2010Prop36
280
     0
102
RTVSPost2010PropOp36
 70
     1
102
RTVSPost2010Prop37
 90
       50
102
RTVSPost2010PropOp37
 70
     0
102
RTVSPost2010Prop38
140
0.0
102
RTVSPost2010PropOp38
 70
     0
102
RTVSPost2010Prop39
140
1.0
102
RTVSPost2010PropOp39
 70
     0
102
RTVSPost2010Prop40
 90
        0
102
RTVSPost2010PropOp40
 70
     0
102
RTVSPost2010Prop41ColorIndex
 90
       18
102
RTVSPost2010Prop41ColorRGB
 90
        0
102
RTVSPost2010PropOp41
 70
     0
102
RTVSPost2010Prop42
 90
       50
102
RTVSPost2010PropOp42
 70
     0
102
RTVSPost2010Prop43
 90
        3
102
RTVSPost2010PropOp43
 70
     0
102
RTVSPost2010Prop44ColorIndex
 90
        5
102
RTVSPost2010Prop44ColorRGB
 90
      255
102
RTVSPost2010PropOp44
 70
     0
102
RTVSPost2010Prop45
280
     0
102
RTVSPost2010PropOp45
 70
     1
102
RTVSPost2010Prop46
 90
       50
102
RTVSPost2010PropOp46
 70
     0
102
RTVSPost2010Prop47
 90
       50
102
RTVSPost2010PropOp47
 70
     0
102
RTVSPost2010Prop48
 90
       50
102
RTVSPost2010PropOp48
 70
     0
102
RTVSPost2010Prop49
280
     0
102
RTVSPost2010PropOp49
 70
     1
102
RTVSPost2010Prop50
 90
       50
102
RTVSPost2010PropOp50
 70
     0
102
RTVSPost2010Prop51ColorIndex
 90
      256
102
RTVSPost2010Prop51ColorRGB
 90
-16777216
102
RTVSPost2010PropOp51
 70
     0
102
RTVSPost2010Prop52
140
1.0
102
RTVSPost2010PropOp52
 70
     0
102
RTVSPost2010Prop53
 90
        2
102
RTVSPost2010PropOp53
 70
     0
102
RTVSPost2010Prop54
  1
strokes_ogs.tif
102
RTVSPost2010PropOp54
 70
     0
102
RTVSPost2010Prop55
280
     0
102
RTVSPost2010PropOp55
 70
     1
102
RTVSPost2010Prop56
140
1.0
102
RTVSPost2010PropOp56
 70
     0
102
RTVSPost2010Prop57
140
1.0
102
RTVSPost2010PropOp57
 70
     0
  0
XRECORD
  5
1B7B
102
{ACAD_REACTORS
330
1B7A
102
}
330
1B7A
100
AcDbXrecord
280
     1
102
RTVSPost2010Prop28
280
     0
102
RTVSPost2010PropOp28
 70
     1
102
RTVSPost2010Prop29
280
     1
102
RTVSPost2010PropOp29
 70
     1
102
RTVSPost2010Prop30
280
     1
102
RTVSPost2010PropOp30
 70
     1
102
RTVSPost2010Prop31
280
     0
102
RTVSPost2010PropOp31
 70
     1
102
RTVSPost2010Prop32
280
     0
102
RTVSPost2010PropOp32
 70
     1
102
RTVSPost2010Prop33
280
     0
102
RTVSPost2010PropOp33
 70
     1
102
RTVSPost2010Prop34
280
     0
102
RTVSPost2010PropOp34
 70
     1
102
RTVSPost2010Prop35
280
     0
102
RTVSPost2010PropOp35
 70
     1
102
RTVSPost2010Prop36
280
     0
102
RTVSPost2010PropOp36
 70
     1
102
RTVSPost2010Prop37
 90
       50
102
RTVSPost2010PropOp37
 70
     1
102
RTVSPost2010Prop38
140
0.0
102
RTVSPost2010PropOp38
 70
     1
102
RTVSPost2010Prop39
140
1.0
102
RTVSPost2010PropOp39
 70
     1
102
RTVSPost2010Prop40
 90
        0
102
RTVSPost2010PropOp40
 70
     1
102
RTVSPost2010Prop41ColorIndex
 90
       18
102
RTVSPost2010Prop41ColorRGB
 90
        0
102
RTVSPost2010PropOp41
 70
     1
102
RTVSPost2010Prop42
 90
       50
102
RTVSPost2010PropOp42
 70
     1
102
RTVSPost2010Prop43
 90
        3
102
RTVSPost2010PropOp43
 70
     1
102
RTVSPost2010Prop44ColorIndex
 90
        5
102
RTVSPost2010Prop44ColorRGB
 90
      255
102
RTVSPost2010PropOp44
 70
     1
102
RTVSPost2010Prop45
280
     0
102
RTVSPost2010PropOp45
 70
     1
102
RTVSPost2010Prop46
 90
       50
102
RTVSPost2010PropOp46
 70
     1
102
RTVSPost2010Prop47
 90
       50
102
RTVSPost2010PropOp47
 70
     1
102
RTVSPost2010Prop48
 90
       50
102
RTVSPost2010PropOp48
 70
     1
102
RTVSPost2010Prop49
280
     0
102
RTVSPost2010PropOp49
 70
     1
102
RTVSPost2010Prop50
 90
       50
102
RTVSPost2010PropOp50
 70
     1
102
RTVSPost2010Prop51ColorIndex
 90
      256
102
RTVSPost2010Prop51ColorRGB
 90
-16777216
102
RTVSPost2010PropOp51
 70
     0
102
RTVSPost2010Prop52
140
1.0
102
RTVSPost2010PropOp52
 70
     0
102
RTVSPost2010Prop53
 90
        2
102
RTVSPost2010PropOp53
 70
     1
102
RTVSPost2010Prop54
  1
strokes_ogs.tif
102
RTVSPost2010PropOp54
 70
     1
102
RTVSPost2010Prop55
280
     0
102
RTVSPost2010PropOp55
 70
     1
102
RTVSPost2010Prop56
140
1.0
102
RTVSPost2010PropOp56
 70
     1
102
RTVSPost2010Prop57
140
1.0
102
RTVSPost2010PropOp57
 70
     1
  0
XRECORD
  5
1B8D
102
{ACAD_REACTORS
330
1B8C
102
}
330
1B8C
100
AcDbXrecord
280
     1
102
RTVSPost2010Prop28
280
     0
102
RTVSPost2010PropOp28
 70
     1
102
RTVSPost2010Prop29
280
     1
102
RTVSPost2010PropOp29
 70
     1
102
RTVSPost2010Prop30
280
     1
102
RTVSPost2010PropOp30
 70
     1
102
RTVSPost2010Prop31
280
     0
102
RTVSPost2010PropOp31
 70
     1
102
RTVSPost2010Prop32
280
     0
102
RTVSPost2010PropOp32
 70
     1
102
RTVSPost2010Prop33
280
     0
102
RTVSPost2010PropOp33
 70
     1
102
RTVSPost2010Prop34
280
     0
102
RTVSPost2010PropOp34
 70
     1
102
RTVSPost2010Prop35
280
     0
102
RTVSPost2010PropOp35
 70
     1
102
RTVSPost2010Prop36
280
     0
102
RTVSPost2010PropOp36
 70
     1
102
RTVSPost2010Prop37
 90
       50
102
RTVSPost2010PropOp37
 70
     0
102
RTVSPost2010Prop38
140
0.0
102
RTVSPost2010PropOp38
 70
     0
102
RTVSPost2010Prop39
140
1.0
102
RTVSPost2010PropOp39
 70
     0
102
RTVSPost2010Prop40
 90
        0
102
RTVSPost2010PropOp40
 70
     0
102
RTVSPost2010Prop41ColorIndex
 90
       18
102
RTVSPost2010Prop41ColorRGB
 90
        0
102
RTVSPost2010PropOp41
 70
     0
102
RTVSPost2010Prop42
 90
       50
102
RTVSPost2010PropOp42
 70
     0
102
RTVSPost2010Prop43
 90
        3
102
RTVSPost2010PropOp43
 70
     0
102
RTVSPost2010Prop44ColorIndex
 90
        5
102
RTVSPost2010Prop44ColorRGB
 90
      255
102
RTVSPost2010PropOp44
 70
     0
102
RTVSPost2010Prop45
280
     0
102
RTVSPost2010PropOp45
 70
     1
102
RTVSPost2010Prop46
 90
       50
102
RTVSPost2010PropOp46
 70
     0
102
RTVSPost2010Prop47
 90
       50
102
RTVSPost2010PropOp47
 70
     0
102
RTVSPost2010Prop48
 90
       50
102
RTVSPost2010PropOp48
 70
     0
102
RTVSPost2010Prop49
280
     0
102
RTVSPost2010PropOp49
 70
     1
102
RTVSPost2010Prop50
 90
       50
102
RTVSPost2010PropOp50
 70
     0
102
RTVSPost2010Prop51ColorIndex
 90
      256
102
RTVSPost2010Prop51ColorRGB
 90
-16777216
102
RTVSPost2010PropOp51
 70
     0
102
RTVSPost2010Prop52
140
1.0
102
RTVSPost2010PropOp52
 70
     0
102
RTVSPost2010Prop53
 90
        2
102
RTVSPost2010PropOp53
 70
     0
102
RTVSPost2010Prop54
  1
strokes_ogs.tif
102
RTVSPost2010PropOp54
 70
     0
102
RTVSPost2010Prop55
280
     0
102
RTVSPost2010PropOp55
 70
     1
102
RTVSPost2010Prop56
140
1.0
102
RTVSPost2010PropOp56
 70
     0
102
RTVSPost2010Prop57
140
1.0
102
RTVSPost2010PropOp57
 70
     0
  0
XRECORD
  5
1B73
102
{ACAD_REACTORS
330
1B72
102
}
330
1B72
100
AcDbXrecord
280
     1
102
RTVSPost2010Prop28
280
     0
102
RTVSPost2010PropOp28
 70
     1
102
RTVSPost2010Prop29
280
     1
102
RTVSPost2010PropOp29
 70
     1
102
RTVSPost2010Prop30
280
     1
102
RTVSPost2010PropOp30
 70
     1
102
RTVSPost2010Prop31
280
     0
102
RTVSPost2010PropOp31
 70
     1
102
RTVSPost2010Prop32
280
     0
102
RTVSPost2010PropOp32
 70
     1
102
RTVSPost2010Prop33
280
     0
102
RTVSPost2010PropOp33
 70
     1
102
RTVSPost2010Prop34
280
     0
102
RTVSPost2010PropOp34
 70
     1
102
RTVSPost2010Prop35
280
     0
102
RTVSPost2010PropOp35
 70
     1
102
RTVSPost2010Prop36
280
     0
102
RTVSPost2010PropOp36
 70
     1
102
RTVSPost2010Prop37
 90
       50
102
RTVSPost2010PropOp37
 70
     1
102
RTVSPost2010Prop38
140
0.0
102
RTVSPost2010PropOp38
 70
     1
102
RTVSPost2010Prop39
140
1.0
102
RTVSPost2010PropOp39
 70
     1
102
RTVSPost2010Prop40
 90
        0
102
RTVSPost2010PropOp40
 70
     1
102
RTVSPost2010Prop41ColorIndex
 90
       18
102
RTVSPost2010Prop41ColorRGB
 90
        0
102
RTVSPost2010PropOp41
 70
     1
102
RTVSPost2010Prop42
 90
       50
102
RTVSPost2010PropOp42
 70
     1
102
RTVSPost2010Prop43
 90
        3
102
RTVSPost2010PropOp43
 70
     1
102
RTVSPost2010Prop44ColorIndex
 90
        5
102
RTVSPost2010Prop44ColorRGB
 90
      255
102
RTVSPost2010PropOp44
 70
     1
102
RTVSPost2010Prop45
280
     0
102
RTVSPost2010PropOp45
 70
     1
102
RTVSPost2010Prop46
 90
       50
102
RTVSPost2010PropOp46
 70
     1
102
RTVSPost2010Prop47
 90
       50
102
RTVSPost2010PropOp47
 70
     1
102
RTVSPost2010Prop48
 90
       50
102
RTVSPost2010PropOp48
 70
     1
102
RTVSPost2010Prop49
280
     0
102
RTVSPost2010PropOp49
 70
     1
102
RTVSPost2010Prop50
 90
       50
102
RTVSPost2010PropOp50
 70
     1
102
RTVSPost2010Prop51ColorIndex
 90
      256
102
RTVSPost2010Prop51ColorRGB
 90
-16777216
102
RTVSPost2010PropOp51
 70
     0
102
RTVSPost2010Prop52
140
1.0
102
RTVSPost2010PropOp52
 70
     0
102
RTVSPost2010Prop53
 90
        2
102
RTVSPost2010PropOp53
 70
     1
102
RTVSPost2010Prop54
  1
strokes_ogs.tif
102
RTVSPost2010PropOp54
 70
     1
102
RTVSPost2010Prop55
280
     0
102
RTVSPost2010PropOp55
 70
     1
102
RTVSPost2010Prop56
140
1.0
102
RTVSPost2010PropOp56
 70
     1
102
RTVSPost2010Prop57
140
1.0
102
RTVSPost2010PropOp57
 70
     1
  0
XRECORD
  5
1B89
102
{ACAD_REACTORS
330
1B88
102
}
330
1B88
100
AcDbXrecord
280
     1
102
RTVSPost2010Prop28
280
     0
102
RTVSPost2010PropOp28
 70
     1
102
RTVSPost2010Prop29
280
     1
102
RTVSPost2010PropOp29
 70
     1
102
RTVSPost2010Prop30
280
     1
102
RTVSPost2010PropOp30
 70
     1
102
RTVSPost2010Prop31
280
     0
102
RTVSPost2010PropOp31
 70
     1
102
RTVSPost2010Prop32
280
     0
102
RTVSPost2010PropOp32
 70
     1
102
RTVSPost2010Prop33
280
     0
102
RTVSPost2010PropOp33
 70
     1
102
RTVSPost2010Prop34
280
     0
102
RTVSPost2010PropOp34
 70
     1
102
RTVSPost2010Prop35
280
     0
102
RTVSPost2010PropOp35
 70
     1
102
RTVSPost2010Prop36
280
     0
102
RTVSPost2010PropOp36
 70
     1
102
RTVSPost2010Prop37
 90
       50
102
RTVSPost2010PropOp37
 70
     1
102
RTVSPost2010Prop38
140
0.0
102
RTVSPost2010PropOp38
 70
     1
102
RTVSPost2010Prop39
140
1.0
102
RTVSPost2010PropOp39
 70
     1
102
RTVSPost2010Prop40
 90
        0
102
RTVSPost2010PropOp40
 70
     1
102
RTVSPost2010Prop41ColorIndex
 90
       18
102
RTVSPost2010Prop41ColorRGB
 90
        0
102
RTVSPost2010PropOp41
 70
     1
102
RTVSPost2010Prop42
 90
       50
102
RTVSPost2010PropOp42
 70
     1
102
RTVSPost2010Prop43
 90
        3
102
RTVSPost2010PropOp43
 70
     1
102
RTVSPost2010Prop44ColorIndex
 90
        5
102
RTVSPost2010Prop44ColorRGB
 90
      255
102
RTVSPost2010PropOp44
 70
     1
102
RTVSPost2010Prop45
280
     0
102
RTVSPost2010PropOp45
 70
     1
102
RTVSPost2010Prop46
 90
       50
102
RTVSPost2010PropOp46
 70
     1
102
RTVSPost2010Prop47
 90
       50
102
RTVSPost2010PropOp47
 70
     1
102
RTVSPost2010Prop48
 90
       50
102
RTVSPost2010PropOp48
 70
     1
102
RTVSPost2010Prop49
280
     0
102
RTVSPost2010PropOp49
 70
     1
102
RTVSPost2010Prop50
 90
       50
102
RTVSPost2010PropOp50
 70
     1
102
RTVSPost2010Prop51ColorIndex
 90
      256
102
RTVSPost2010Prop51ColorRGB
 90
-16777216
102
RTVSPost2010PropOp51
 70
     0
102
RTVSPost2010Prop52
140
1.0
102
RTVSPost2010PropOp52
 70
     0
102
RTVSPost2010Prop53
 90
        2
102
RTVSPost2010PropOp53
 70
     1
102
RTVSPost2010Prop54
  1
strokes_ogs.tif
102
RTVSPost2010PropOp54
 70
     1
102
RTVSPost2010Prop55
280
     0
102
RTVSPost2010PropOp55
 70
     1
102
RTVSPost2010Prop56
140
1.0
102
RTVSPost2010PropOp56
 70
     1
102
RTVSPost2010Prop57
140
1.0
102
RTVSPost2010PropOp57
 70
     1
  0
XRECORD
  5
1B87
102
{ACAD_REACTORS
330
1B86
102
}
330
1B86
100
AcDbXrecord
280
     1
102
RTVSPost2010Prop28
280
     0
102
RTVSPost2010PropOp28
 70
     1
102
RTVSPost2010Prop29
280
     1
102
RTVSPost2010PropOp29
 70
     1
102
RTVSPost2010Prop30
280
     1
102
RTVSPost2010PropOp30
 70
     1
102
RTVSPost2010Prop31
280
     0
102
RTVSPost2010PropOp31
 70
     1
102
RTVSPost2010Prop32
280
     0
102
RTVSPost2010PropOp32
 70
     1
102
RTVSPost2010Prop33
280
     0
102
RTVSPost2010PropOp33
 70
     1
102
RTVSPost2010Prop34
280
     0
102
RTVSPost2010PropOp34
 70
     1
102
RTVSPost2010Prop35
280
     0
102
RTVSPost2010PropOp35
 70
     1
102
RTVSPost2010Prop36
280
     0
102
RTVSPost2010PropOp36
 70
     1
102
RTVSPost2010Prop37
 90
       50
102
RTVSPost2010PropOp37
 70
     1
102
RTVSPost2010Prop38
140
0.0
102
RTVSPost2010PropOp38
 70
     1
102
RTVSPost2010Prop39
140
1.0
102
RTVSPost2010PropOp39
 70
     1
102
RTVSPost2010Prop40
 90
        0
102
RTVSPost2010PropOp40
 70
     1
102
RTVSPost2010Prop41ColorIndex
 90
       18
102
RTVSPost2010Prop41ColorRGB
 90
        0
102
RTVSPost2010PropOp41
 70
     1
102
RTVSPost2010Prop42
 90
       50
102
RTVSPost2010PropOp42
 70
     1
102
RTVSPost2010Prop43
 90
        3
102
RTVSPost2010PropOp43
 70
     1
102
RTVSPost2010Prop44ColorIndex
 90
        5
102
RTVSPost2010Prop44ColorRGB
 90
      255
102
RTVSPost2010PropOp44
 70
     1
102
RTVSPost2010Prop45
280
     0
102
RTVSPost2010PropOp45
 70
     1
102
RTVSPost2010Prop46
 90
       50
102
RTVSPost2010PropOp46
 70
     1
102
RTVSPost2010Prop47
 90
       50
102
RTVSPost2010PropOp47
 70
     1
102
RTVSPost2010Prop48
 90
       50
102
RTVSPost2010PropOp48
 70
     1
102
RTVSPost2010Prop49
280
     0
102
RTVSPost2010PropOp49
 70
     1
102
RTVSPost2010Prop50
 90
       50
102
RTVSPost2010PropOp50
 70
     1
102
RTVSPost2010Prop51ColorIndex
 90
      256
102
RTVSPost2010Prop51ColorRGB
 90
-16777216
102
RTVSPost2010PropOp51
 70
     0
102
RTVSPost2010Prop52
140
1.0
102
RTVSPost2010PropOp52
 70
     0
102
RTVSPost2010Prop53
 90
        2
102
RTVSPost2010PropOp53
 70
     1
102
RTVSPost2010Prop54
  1
strokes_ogs.tif
102
RTVSPost2010PropOp54
 70
     1
102
RTVSPost2010Prop55
280
     0
102
RTVSPost2010PropOp55
 70
     1
102
RTVSPost2010Prop56
140
1.0
102
RTVSPost2010PropOp56
 70
     1
102
RTVSPost2010Prop57
140
1.0
102
RTVSPost2010PropOp57
 70
     1
  0
XRECORD
  5
1B81
102
{ACAD_REACTORS
330
1B80
102
}
330
1B80
100
AcDbXrecord
280
     1
102
RTVSPost2010Prop28
280
     0
102
RTVSPost2010PropOp28
 70
     1
102
RTVSPost2010Prop29
280
     1
102
RTVSPost2010PropOp29
 70
     1
102
RTVSPost2010Prop30
280
     1
102
RTVSPost2010PropOp30
 70
     1
102
RTVSPost2010Prop31
280
     0
102
RTVSPost2010PropOp31
 70
     1
102
RTVSPost2010Prop32
280
     0
102
RTVSPost2010PropOp32
 70
     1
102
RTVSPost2010Prop33
280
     0
102
RTVSPost2010PropOp33
 70
     1
102
RTVSPost2010Prop34
280
     0
102
RTVSPost2010PropOp34
 70
     1
102
RTVSPost2010Prop35
280
     0
102
RTVSPost2010PropOp35
 70
     1
102
RTVSPost2010Prop36
280
     0
102
RTVSPost2010PropOp36
 70
     1
102
RTVSPost2010Prop37
 90
       50
102
RTVSPost2010PropOp37
 70
     1
102
RTVSPost2010Prop38
140
0.0
102
RTVSPost2010PropOp38
 70
     1
102
RTVSPost2010Prop39
140
1.0
102
RTVSPost2010PropOp39
 70
     1
102
RTVSPost2010Prop40
 90
        0
102
RTVSPost2010PropOp40
 70
     1
102
RTVSPost2010Prop41ColorIndex
 90
       18
102
RTVSPost2010Prop41ColorRGB
 90
        0
102
RTVSPost2010PropOp41
 70
     1
102
RTVSPost2010Prop42
 90
       50
102
RTVSPost2010PropOp42
 70
     1
102
RTVSPost2010Prop43
 90
        3
102
RTVSPost2010PropOp43
 70
     1
102
RTVSPost2010Prop44ColorIndex
 90
        5
102
RTVSPost2010Prop44ColorRGB
 90
      255
102
RTVSPost2010PropOp44
 70
     1
102
RTVSPost2010Prop45
280
     0
102
RTVSPost2010PropOp45
 70
     1
102
RTVSPost2010Prop46
 90
       50
102
RTVSPost2010PropOp46
 70
     1
102
RTVSPost2010Prop47
 90
       50
102
RTVSPost2010PropOp47
 70
     1
102
RTVSPost2010Prop48
 90
       50
102
RTVSPost2010PropOp48
 70
     1
102
RTVSPost2010Prop49
280
     0
102
RTVSPost2010PropOp49
 70
     1
102
RTVSPost2010Prop50
 90
       50
102
RTVSPost2010PropOp50
 70
     1
102
RTVSPost2010Prop51ColorIndex
 90
      256
102
RTVSPost2010Prop51ColorRGB
 90
-16777216
102
RTVSPost2010PropOp51
 70
     0
102
RTVSPost2010Prop52
140
1.0
102
RTVSPost2010PropOp52
 70
     0
102
RTVSPost2010Prop53
 90
        2
102
RTVSPost2010PropOp53
 70
     1
102
RTVSPost2010Prop54
  1
strokes_ogs.tif
102
RTVSPost2010PropOp54
 70
     1
102
RTVSPost2010Prop55
280
     0
102
RTVSPost2010PropOp55
 70
     1
102
RTVSPost2010Prop56
140
1.0
102
RTVSPost2010PropOp56
 70
     1
102
RTVSPost2010Prop57
140
1.0
102
RTVSPost2010PropOp57
 70
     1
  0
XRECORD
  5
1B83
102
{ACAD_REACTORS
330
1B82
102
}
330
1B82
100
AcDbXrecord
280
     1
102
RTVSPost2010Prop28
280
     0
102
RTVSPost2010PropOp28
 70
     1
102
RTVSPost2010Prop29
280
     1
102
RTVSPost2010PropOp29
 70
     1
102
RTVSPost2010Prop30
280
     1
102
RTVSPost2010PropOp30
 70
     1
102
RTVSPost2010Prop31
280
     0
102
RTVSPost2010PropOp31
 70
     1
102
RTVSPost2010Prop32
280
     0
102
RTVSPost2010PropOp32
 70
     1
102
RTVSPost2010Prop33
280
     0
102
RTVSPost2010PropOp33
 70
     1
102
RTVSPost2010Prop34
280
     0
102
RTVSPost2010PropOp34
 70
     1
102
RTVSPost2010Prop35
280
     0
102
RTVSPost2010PropOp35
 70
     1
102
RTVSPost2010Prop36
280
     0
102
RTVSPost2010PropOp36
 70
     1
102
RTVSPost2010Prop37
 90
       50
102
RTVSPost2010PropOp37
 70
     1
102
RTVSPost2010Prop38
140
0.0
102
RTVSPost2010PropOp38
 70
     1
102
RTVSPost2010Prop39
140
1.0
102
RTVSPost2010PropOp39
 70
     1
102
RTVSPost2010Prop40
 90
        0
102
RTVSPost2010PropOp40
 70
     1
102
RTVSPost2010Prop41ColorIndex
 90
       18
102
RTVSPost2010Prop41ColorRGB
 90
        0
102
RTVSPost2010PropOp41
 70
     1
102
RTVSPost2010Prop42
 90
       50
102
RTVSPost2010PropOp42
 70
     1
102
RTVSPost2010Prop43
 90
        3
102
RTVSPost2010PropOp43
 70
     1
102
RTVSPost2010Prop44ColorIndex
 90
        5
102
RTVSPost2010Prop44ColorRGB
 90
      255
102
RTVSPost2010PropOp44
 70
     1
102
RTVSPost2010Prop45
280
     0
102
RTVSPost2010PropOp45
 70
     1
102
RTVSPost2010Prop46
 90
       50
102
RTVSPost2010PropOp46
 70
     1
102
RTVSPost2010Prop47
 90
       50
102
RTVSPost2010PropOp47
 70
     1
102
RTVSPost2010Prop48
 90
       50
102
RTVSPost2010PropOp48
 70
     1
102
RTVSPost2010Prop49
280
     0
102
RTVSPost2010PropOp49
 70
     1
102
RTVSPost2010Prop50
 90
       50
102
RTVSPost2010PropOp50
 70
     1
102
RTVSPost2010Prop51ColorIndex
 90
      256
102
RTVSPost2010Prop51ColorRGB
 90
-16777216
102
RTVSPost2010PropOp51
 70
     0
102
RTVSPost2010Prop52
140
1.0
102
RTVSPost2010PropOp52
 70
     0
102
RTVSPost2010Prop53
 90
        2
102
RTVSPost2010PropOp53
 70
     1
102
RTVSPost2010Prop54
  1
strokes_ogs.tif
102
RTVSPost2010PropOp54
 70
     1
102
RTVSPost2010Prop55
280
     0
102
RTVSPost2010PropOp55
 70
     1
102
RTVSPost2010Prop56
140
1.0
102
RTVSPost2010PropOp56
 70
     1
102
RTVSPost2010Prop57
140
1.0
102
RTVSPost2010PropOp57
 70
     1
  0
XRECORD
  5
1B79
102
{ACAD_REACTORS
330
1B78
102
}
330
1B78
100
AcDbXrecord
280
     1
102
RTVSPost2010Prop28
280
     0
102
RTVSPost2010PropOp28
 70
     1
102
RTVSPost2010Prop29
280
     1
102
RTVSPost2010PropOp29
 70
     1
102
RTVSPost2010Prop30
280
     1
102
RTVSPost2010PropOp30
 70
     1
102
RTVSPost2010Prop31
280
     0
102
RTVSPost2010PropOp31
 70
     1
102
RTVSPost2010Prop32
280
     0
102
RTVSPost2010PropOp32
 70
     1
102
RTVSPost2010Prop33
280
     0
102
RTVSPost2010PropOp33
 70
     1
102
RTVSPost2010Prop34
280
     0
102
RTVSPost2010PropOp34
 70
     1
102
RTVSPost2010Prop35
280
     0
102
RTVSPost2010PropOp35
 70
     1
102
RTVSPost2010Prop36
280
     0
102
RTVSPost2010PropOp36
 70
     1
102
RTVSPost2010Prop37
 90
       50
102
RTVSPost2010PropOp37
 70
     1
102
RTVSPost2010Prop38
140
0.0
102
RTVSPost2010PropOp38
 70
     1
102
RTVSPost2010Prop39
140
1.0
102
RTVSPost2010PropOp39
 70
     1
102
RTVSPost2010Prop40
 90
        0
102
RTVSPost2010PropOp40
 70
     1
102
RTVSPost2010Prop41ColorIndex
 90
       18
102
RTVSPost2010Prop41ColorRGB
 90
        0
102
RTVSPost2010PropOp41
 70
     1
102
RTVSPost2010Prop42
 90
       50
102
RTVSPost2010PropOp42
 70
     1
102
RTVSPost2010Prop43
 90
        3
102
RTVSPost2010PropOp43
 70
     1
102
RTVSPost2010Prop44ColorIndex
 90
        5
102
RTVSPost2010Prop44ColorRGB
 90
      255
102
RTVSPost2010PropOp44
 70
     1
102
RTVSPost2010Prop45
280
     0
102
RTVSPost2010PropOp45
 70
     1
102
RTVSPost2010Prop46
 90
       50
102
RTVSPost2010PropOp46
 70
     1
102
RTVSPost2010Prop47
 90
       50
102
RTVSPost2010PropOp47
 70
     1
102
RTVSPost2010Prop48
 90
       50
102
RTVSPost2010PropOp48
 70
     1
102
RTVSPost2010Prop49
280
     0
102
RTVSPost2010PropOp49
 70
     1
102
RTVSPost2010Prop50
 90
       50
102
RTVSPost2010PropOp50
 70
     1
102
RTVSPost2010Prop51ColorIndex
 90
      256
102
RTVSPost2010Prop51ColorRGB
 90
-16777216
102
RTVSPost2010PropOp51
 70
     0
102
RTVSPost2010Prop52
140
1.0
102
RTVSPost2010PropOp52
 70
     0
102
RTVSPost2010Prop53
 90
        2
102
RTVSPost2010PropOp53
 70
     1
102
RTVSPost2010Prop54
  1
strokes_ogs.tif
102
RTVSPost2010PropOp54
 70
     1
102
RTVSPost2010Prop55
280
     0
102
RTVSPost2010PropOp55
 70
     1
102
RTVSPost2010Prop56
140
1.0
102
RTVSPost2010PropOp56
 70
     1
102
RTVSPost2010Prop57
140
1.0
102
RTVSPost2010PropOp57
 70
     1
  0
XRECORD
  5
1B6D
102
{ACAD_REACTORS
330
1B6C
102
}
330
1B6C
100
AcDbXrecord
280
     1
102
RTVSPost2010Prop28
280
     0
102
RTVSPost2010PropOp28
 70
     1
102
RTVSPost2010Prop29
280
     1
102
RTVSPost2010PropOp29
 70
     1
102
RTVSPost2010Prop30
280
     1
102
RTVSPost2010PropOp30
 70
     1
102
RTVSPost2010Prop31
280
     0
102
RTVSPost2010PropOp31
 70
     1
102
RTVSPost2010Prop32
280
     0
102
RTVSPost2010PropOp32
 70
     1
102
RTVSPost2010Prop33
280
     0
102
RTVSPost2010PropOp33
 70
     1
102
RTVSPost2010Prop34
280
     0
102
RTVSPost2010PropOp34
 70
     1
102
RTVSPost2010Prop35
280
     0
102
RTVSPost2010PropOp35
 70
     1
102
RTVSPost2010Prop36
280
     0
102
RTVSPost2010PropOp36
 70
     1
102
RTVSPost2010Prop37
 90
       50
102
RTVSPost2010PropOp37
 70
     1
102
RTVSPost2010Prop38
140
0.0
102
RTVSPost2010PropOp38
 70
     1
102
RTVSPost2010Prop39
140
1.0
102
RTVSPost2010PropOp39
 70
     1
102
RTVSPost2010Prop40
 90
        0
102
RTVSPost2010PropOp40
 70
     1
102
RTVSPost2010Prop41ColorIndex
 90
       18
102
RTVSPost2010Prop41ColorRGB
 90
        0
102
RTVSPost2010PropOp41
 70
     1
102
RTVSPost2010Prop42
 90
       50
102
RTVSPost2010PropOp42
 70
     1
102
RTVSPost2010Prop43
 90
        3
102
RTVSPost2010PropOp43
 70
     1
102
RTVSPost2010Prop44ColorIndex
 90
        5
102
RTVSPost2010Prop44ColorRGB
 90
      255
102
RTVSPost2010PropOp44
 70
     1
102
RTVSPost2010Prop45
280
     0
102
RTVSPost2010PropOp45
 70
     1
102
RTVSPost2010Prop46
 90
       50
102
RTVSPost2010PropOp46
 70
     1
102
RTVSPost2010Prop47
 90
       50
102
RTVSPost2010PropOp47
 70
     1
102
RTVSPost2010Prop48
 90
       50
102
RTVSPost2010PropOp48
 70
     1
102
RTVSPost2010Prop49
280
     0
102
RTVSPost2010PropOp49
 70
     1
102
RTVSPost2010Prop50
 90
       50
102
RTVSPost2010PropOp50
 70
     1
102
RTVSPost2010Prop51ColorIndex
 90
      256
102
RTVSPost2010Prop51ColorRGB
 90
-16777216
102
RTVSPost2010PropOp51
 70
     0
102
RTVSPost2010Prop52
140
1.0
102
RTVSPost2010PropOp52
 70
     0
102
RTVSPost2010Prop53
 90
        2
102
RTVSPost2010PropOp53
 70
     1
102
RTVSPost2010Prop54
  1
strokes_ogs.tif
102
RTVSPost2010PropOp54
 70
     1
102
RTVSPost2010Prop55
280
     0
102
RTVSPost2010PropOp55
 70
     1
102
RTVSPost2010Prop56
140
1.0
102
RTVSPost2010PropOp56
 70
     1
102
RTVSPost2010Prop57
140
1.0
102
RTVSPost2010PropOp57
 70
     1
  0
XRECORD
  5
1B85
102
{ACAD_REACTORS
330
1B84
102
}
330
1B84
100
AcDbXrecord
280
     1
102
RTVSPost2010Prop28
280
     0
102
RTVSPost2010PropOp28
 70
     1
102
RTVSPost2010Prop29
280
     1
102
RTVSPost2010PropOp29
 70
     1
102
RTVSPost2010Prop30
280
     1
102
RTVSPost2010PropOp30
 70
     1
102
RTVSPost2010Prop31
280
     0
102
RTVSPost2010PropOp31
 70
     1
102
RTVSPost2010Prop32
280
     0
102
RTVSPost2010PropOp32
 70
     1
102
RTVSPost2010Prop33
280
     0
102
RTVSPost2010PropOp33
 70
     1
102
RTVSPost2010Prop34
280
     0
102
RTVSPost2010PropOp34
 70
     1
102
RTVSPost2010Prop35
280
     0
102
RTVSPost2010PropOp35
 70
     1
102
RTVSPost2010Prop36
280
     0
102
RTVSPost2010PropOp36
 70
     1
102
RTVSPost2010Prop37
 90
       50
102
RTVSPost2010PropOp37
 70
     1
102
RTVSPost2010Prop38
140
0.0
102
RTVSPost2010PropOp38
 70
     1
102
RTVSPost2010Prop39
140
1.0
102
RTVSPost2010PropOp39
 70
     1
102
RTVSPost2010Prop40
 90
        0
102
RTVSPost2010PropOp40
 70
     1
102
RTVSPost2010Prop41ColorIndex
 90
       18
102
RTVSPost2010Prop41ColorRGB
 90
        0
102
RTVSPost2010PropOp41
 70
     1
102
RTVSPost2010Prop42
 90
       50
102
RTVSPost2010PropOp42
 70
     1
102
RTVSPost2010Prop43
 90
        3
102
RTVSPost2010PropOp43
 70
     1
102
RTVSPost2010Prop44ColorIndex
 90
        5
102
RTVSPost2010Prop44ColorRGB
 90
      255
102
RTVSPost2010PropOp44
 70
     1
102
RTVSPost2010Prop45
280
     0
102
RTVSPost2010PropOp45
 70
     1
102
RTVSPost2010Prop46
 90
       50
102
RTVSPost2010PropOp46
 70
     1
102
RTVSPost2010Prop47
 90
       50
102
RTVSPost2010PropOp47
 70
     1
102
RTVSPost2010Prop48
 90
       50
102
RTVSPost2010PropOp48
 70
     1
102
RTVSPost2010Prop49
280
     0
102
RTVSPost2010PropOp49
 70
     1
102
RTVSPost2010Prop50
 90
       50
102
RTVSPost2010PropOp50
 70
     1
102
RTVSPost2010Prop51ColorIndex
 90
      256
102
RTVSPost2010Prop51ColorRGB
 90
-16777216
102
RTVSPost2010PropOp51
 70
     0
102
RTVSPost2010Prop52
140
1.0
102
RTVSPost2010PropOp52
 70
     0
102
RTVSPost2010Prop53
 90
        2
102
RTVSPost2010PropOp53
 70
     1
102
RTVSPost2010Prop54
  1
strokes_ogs.tif
102
RTVSPost2010PropOp54
 70
     1
102
RTVSPost2010Prop55
280
     0
102
RTVSPost2010PropOp55
 70
     1
102
RTVSPost2010Prop56
140
1.0
102
RTVSPost2010PropOp56
 70
     1
102
RTVSPost2010Prop57
140
1.0
102
RTVSPost2010PropOp57
 70
     1
  0
ENDSEC
  0
EOF
