  0
SECTION
  2
HEADER
  9
$ACADVER
  1
AC1024
  9
$ACADMAINTVER
 70
   225
  9
$DWGCODEPAGE
  3
ANSI_949
  9
$LASTSAVEDBY
  1
YJJ
  9
$INSBASE
 10
0.0
 20
0.0
 30
0.0
  9
$EXTMIN
 10
-27.90685338019875
 20
197.4267525488112
 30
0.0
  9
$EXTMAX
 10
323.9659239151511
 20
326.6787529343456
 30
0.0
  9
$LIMMIN
 10
0.0
 20
0.0
  9
$LIMMAX
 10
12.0
 20
9.0
  9
$ORTHOMODE
 70
     0
  9
$REGENMODE
 70
     1
  9
$FILLMODE
 70
     0
  9
$QTEXTMODE
 70
     0
  9
$MIRRTEXT
 70
     0
  9
$LTSCALE
 40
1.0
  9
$ATTMODE
 70
     1
  9
$TEXTSIZE
 40
0.2
  9
$TRACEWID
 40
0.05
  9
$TEXTSTYLE
  7
Standard
  9
$CLAYER
  8
0
  9
$CELTYPE
  6
Continuous
  9
$CECOLOR
 62
   256
  9
$CELTSCALE
 40
1.0
  9
$DISPSILH
 70
     0
  9
$DIMSCALE
 40
1.0
  9
$DIMASZ
 40
0.18
  9
$DIMEXO
 40
0.0625
  9
$DIMDLI
 40
0.38
  9
$DIMRND
 40
0.0
  9
$DIMDLE
 40
0.0
  9
$DIMEXE
 40
0.18
  9
$DIMTP
 40
0.0
  9
$DIMTM
 40
0.0
  9
$DIMTXT
 40
0.18
  9
$DIMCEN
 40
0.09
  9
$DIMTSZ
 40
0.0
  9
$DIMTOL
 70
     0
  9
$DIMLIM
 70
     0
  9
$DIMTIH
 70
     1
  9
$DIMTOH
 70
     1
  9
$DIMSE1
 70
     0
  9
$DIMSE2
 70
     0
  9
$DIMTAD
 70
     0
  9
$DIMZIN
 70
     0
  9
$DIMBLK
  1

  9
$DIMASO
 70
     1
  9
$DIMSHO
 70
     1
  9
$DIMPOST
  1

  9
$DIMAPOST
  1

  9
$DIMALT
 70
     0
  9
$DIMALTD
 70
     2
  9
$DIMALTF
 40
25.4
  9
$DIMLFAC
 40
1.0
  9
$DIMTOFL
 70
     0
  9
$DIMTVP
 40
0.0
  9
$DIMTIX
 70
     0
  9
$DIMSOXD
 70
     0
  9
$DIMSAH
 70
     0
  9
$DIMBLK1
  1

  9
$DIMBLK2
  1

  9
$DIMSTYLE
  2
Standard
  9
$DIMCLRD
 70
     0
  9
$DIMCLRE
 70
     0
  9
$DIMCLRT
 70
     0
  9
$DIMTFAC
 40
1.0
  9
$DIMGAP
 40
0.09
  9
$DIMJUST
 70
     0
  9
$DIMSD1
 70
     0
  9
$DIMSD2
 70
     0
  9
$DIMTOLJ
 70
     1
  9
$DIMTZIN
 70
     0
  9
$DIMALTZ
 70
     0
  9
$DIMALTTZ
 70
     0
  9
$DIMUPT
 70
     0
  9
$DIMDEC
 70
     4
  9
$DIMTDEC
 70
     4
  9
$DIMALTU
 70
     2
  9
$DIMALTTD
 70
     2
  9
$DIMTXSTY
  7
Standard
  9
$DIMAUNIT
 70
     0
  9
$DIMADEC
 70
     0
  9
$DIMALTRND
 40
0.0
  9
$DIMAZIN
 70
     0
  9
$DIMDSEP
 70
    46
  9
$DIMATFIT
 70
     3
  9
$DIMFRAC
 70
     0
  9
$DIMLDRBLK
  1

  9
$DIMLUNIT
 70
     2
  9
$DIMLWD
 70
    -2
  9
$DIMLWE
 70
    -2
  9
$DIMTMOVE
 70
     0
  9
$DIMFXL
 40
1.0
  9
$DIMFXLON
 70
     0
  9
$DIMJOGANG
 40
0.7853981633974483
  9
$DIMTFILL
 70
     0
  9
$DIMTFILLCLR
 70
     0
  9
$DIMARCSYM
 70
     0
  9
$DIMLTYPE
  6

  9
$DIMLTEX1
  6

  9
$DIMLTEX2
  6

  9
$DIMTXTDIRECTION
 70
     0
  9
$LUNITS
 70
     2
  9
$LUPREC
 70
     4
  9
$SKETCHINC
 40
0.1
  9
$FILLETRAD
 40
0.0
  9
$AUNITS
 70
     0
  9
$AUPREC
 70
     0
  9
$MENU
  1
.
  9
$ELEVATION
 40
0.0
  9
$PELEVATION
 40
0.0
  9
$THICKNESS
 40
0.0
  9
$LIMCHECK
 70
     0
  9
$CHAMFERA
 40
0.0
  9
$CHAMFERB
 40
0.0
  9
$CHAMFERC
 40
0.0
  9
$CHAMFERD
 40
0.0
  9
$SKPOLY
 70
     0
  9
$TDCREATE
 40
2457904.661157408
  9
$TDUCREATE
 40
2457904.327824074
  9
$TDUPDATE
 40
2457908.626493055
  9
$TDUUPDATE
 40
2457908.293159722
  9
$TDINDWG
 40
0.5322916667
  9
$TDUSRTIMER
 40
0.5322916667
  9
$USRTIMER
 70
     1
  9
$ANGBASE
 50
0.0
  9
$ANGDIR
 70
     0
  9
$PDMODE
 70
     0
  9
$PDSIZE
 40
0.0
  9
$PLINEWID
 40
0.0
  9
$SPLFRAME
 70
     1
  9
$SPLINETYPE
 70
     6
  9
$SPLINESEGS
 70
     8
  9
$HANDSEED
  5
2B99
  9
$SURFTAB1
 70
     6
  9
$SURFTAB2
 70
     6
  9
$SURFTYPE
 70
     6
  9
$SURFU
 70
     6
  9
$SURFV
 70
     6
  9
$UCSBASE
  2

  9
$UCSNAME
  2

  9
$UCSORG
 10
0.0
 20
0.0
 30
0.0
  9
$UCSXDIR
 10
1.0
 20
0.0
 30
0.0
  9
$UCSYDIR
 10
0.0
 20
1.0
 30
0.0
  9
$UCSORTHOREF
  2

  9
$UCSORTHOVIEW
 70
     0
  9
$UCSORGTOP
 10
0.0
 20
0.0
 30
0.0
  9
$UCSORGBOTTOM
 10
0.0
 20
0.0
 30
0.0
  9
$UCSORGLEFT
 10
0.0
 20
0.0
 30
0.0
  9
$UCSORGRIGHT
 10
0.0
 20
0.0
 30
0.0
  9
$UCSORGFRONT
 10
0.0
 20
0.0
 30
0.0
  9
$UCSORGBACK
 10
0.0
 20
0.0
 30
0.0
  9
$PUCSBASE
  2

  9
$PUCSNAME
  2

  9
$PUCSORG
 10
0.0
 20
0.0
 30
0.0
  9
$PUCSXDIR
 10
1.0
 20
0.0
 30
0.0
  9
$PUCSYDIR
 10
0.0
 20
1.0
 30
0.0
  9
$PUCSORTHOREF
  2

  9
$PUCSORTHOVIEW
 70
     0
  9
$PUCSORGTOP
 10
0.0
 20
0.0
 30
0.0
  9
$PUCSORGBOTTOM
 10
0.0
 20
0.0
 30
0.0
  9
$PUCSORGLEFT
 10
0.0
 20
0.0
 30
0.0
  9
$PUCSORGRIGHT
 10
0.0
 20
0.0
 30
0.0
  9
$PUCSORGFRONT
 10
0.0
 20
0.0
 30
0.0
  9
$PUCSORGBACK
 10
0.0
 20
0.0
 30
0.0
  9
$USERI1
 70
     0
  9
$USERI2
 70
     0
  9
$USERI3
 70
     0
  9
$USERI4
 70
     0
  9
$USERI5
 70
     0
  9
$USERR1
 40
0.0
  9
$USERR2
 40
0.0
  9
$USERR3
 40
0.0
  9
$USERR4
 40
0.0
  9
$USERR5
 40
0.0
  9
$WORLDVIEW
 70
     1
  9
$SHADEDGE
 70
     3
  9
$SHADEDIF
 70
    70
  9
$TILEMODE
 70
     1
  9
$MAXACTVP
 70
    64
  9
$PINSBASE
 10
0.0
 20
0.0
 30
0.0
  9
$PLIMCHECK
 70
     0
  9
$PEXTMIN
 10
1.000000000000000E+20
 20
1.000000000000000E+20
 30
1.000000000000000E+20
  9
$PEXTMAX
 10
-1.000000000000000E+20
 20
-1.000000000000000E+20
 30
-1.000000000000000E+20
  9
$PLIMMIN
 10
0.0
 20
0.0
  9
$PLIMMAX
 10
12.0
 20
9.0
  9
$UNITMODE
 70
     0
  9
$VISRETAIN
 70
     1
  9
$PLINEGEN
 70
     0
  9
$PSLTSCALE
 70
     1
  9
$TREEDEPTH
 70
  3020
  9
$CMLSTYLE
  2
Standard
  9
$CMLJUST
 70
     0
  9
$CMLSCALE
 40
1.0
  9
$PROXYGRAPHICS
 70
     1
  9
$MEASUREMENT
 70
     0
  9
$CELWEIGHT
370
    -1
  9
$ENDCAPS
280
     0
  9
$JOINSTYLE
280
     0
  9
$LWDISPLAY
290
     0
  9
$INSUNITS
 70
     0
  9
$HYPERLINKBASE
  1

  9
$STYLESHEET
  1

  9
$XEDIT
290
     1
  9
$CEPSNTYPE
380
     0
  9
$PSTYLEMODE
290
     1
  9
$FINGERPRINTGUID
  2
{13D88DB1-A7D5-1E45-A576-B6BE65D30748}
  9
$VERSIONGUID
  2
{702307BF-C897-8849-B1A1-585A33F7D228}
  9
$EXTNAMES
290
     1
  9
$PSVPSCALE
 40
0.0
  9
$OLESTARTUP
290
     0
  9
$SORTENTS
280
   127
  9
$INDEXCTL
280
     0
  9
$HIDETEXT
280
     0
  9
$XCLIPFRAME
280
     2
  9
$HALOGAP
280
     0
  9
$OBSCOLOR
 70
   257
  9
$OBSLTYPE
280
     0
  9
$INTERSECTIONDISPLAY
280
     0
  9
$INTERSECTIONCOLOR
 70
   257
  9
$DIMASSOC
280
     1
  9
$PROJECTNAME
  1

  9
$CAMERADISPLAY
290
     0
  9
$LENSLENGTH
 40
50.0
  9
$CAMERAHEIGHT
 40
0.0
  9
$STEPSPERSEC
 40
2.0
  9
$STEPSIZE
 40
6.0
  9
$3DDWFPREC
 40
2.0
  9
$PSOLWIDTH
 40
0.25
  9
$PSOLHEIGHT
 40
4.0
  9
$LOFTANG1
 40
1.570796326794896
  9
$LOFTANG2
 40
1.570796326794896
  9
$LOFTMAG1
 40
0.0
  9
$LOFTMAG2
 40
0.0
  9
$LOFTPARAM
 70
     7
  9
$LOFTNORMALS
280
     1
  9
$LATITUDE
 40
37.795
  9
$LONGITUDE
 40
-122.394
  9
$NORTHDIRECTION
 40
0.0
  9
$TIMEZONE
 70
 -8000
  9
$LIGHTGLYPHDISPLAY
280
     1
  9
$TILEMODELIGHTSYNCH
280
     1
  9
$CMATERIAL
347
11
  9
$SOLIDHIST
280
     0
  9
$SHOWHIST
280
     1
  9
$DWFFRAME
280
     2
  9
$DGNFRAME
280
     0
  9
$REALWORLDSCALE
290
     1
  9
$INTERFERECOLOR
 62
     1
  9
$INTERFEREOBJVS
345
33
  9
$INTERFEREVPVS
346
30
  9
$CSHADOW
280
     0
  9
$SHADOWPLANELOCATION
 40
0.0
  0
ENDSEC
  0
SECTION
  2
CLASSES
  0
CLASS
  1
ACDBDICTIONARYWDFLT
  2
AcDbDictionaryWithDefault
  3
ObjectDBX Classes
 90
        0
 91
        1
280
     0
281
     0
  0
CLASS
  1
MATERIAL
  2
AcDbMaterial
  3
ObjectDBX Classes
 90
     1153
 91
        3
280
     0
281
     0
  0
CLASS
  1
VISUALSTYLE
  2
AcDbVisualStyle
  3
ObjectDBX Classes
 90
     4095
 91
       24
280
     0
281
     0
  0
CLASS
  1
SCALE
  2
AcDbScale
  3
ObjectDBX Classes
 90
     1153
 91
       17
280
     0
281
     0
  0
CLASS
  1
TABLESTYLE
  2
AcDbTableStyle
  3
ObjectDBX Classes
 90
     4095
 91
        1
280
     0
281
     0
  0
CLASS
  1
MLEADERSTYLE
  2
AcDbMLeaderStyle
  3
ACDB_MLEADERSTYLE_CLASS
 90
     4095
 91
        1
280
     0
281
     0
  0
CLASS
  1
ACDBSECTIONVIEWSTYLE
  2
AcDbSectionViewStyle
  3
ObjectDBX Classes
 90
     1025
 91
        1
280
     0
281
     0
  0
CLASS
  1
ACDBDETAILVIEWSTYLE
  2
AcDbDetailViewStyle
  3
ObjectDBX Classes
 90
     1025
 91
        1
280
     0
281
     0
  0
CLASS
  1
SORTENTSTABLE
  2
AcDbSortentsTable
  3
ObjectDBX Classes
 90
        0
 91
        9
280
     0
281
     0
  0
CLASS
  1
DICTIONARYVAR
  2
AcDbDictionaryVar
  3
ObjectDBX Classes
 90
        0
 91
        9
280
     0
281
     0
  0
CLASS
  1
ACDBASSOCNETWORK
  2
AcDbAssocNetwork
  3
ObjectDBX Classes
 90
     1025
 91
        0
280
     0
281
     0
  0
CLASS
  1
ACDBASSOCACTION
  2
AcDbAssocAction
  3
ObjectDBX Classes
 90
     1025
 91
        0
280
     0
281
     0
  0
CLASS
  1
AcDbCenterLineActionBody
  2
AcDbCenterLineActionBody
  3
AcDbSmartCenter
 90
     1153
 91
        0
280
     0
281
     0
  0
CLASS
  1
ACDBASSOCEDGEACTIONPARAM
  2
AcDbAssocEdgeActionParam
  3
ObjectDBX Classes
 90
     1025
 91
        0
280
     0
281
     0
  0
CLASS
  1
ACDBASSOCGEOMDEPENDENCY
  2
AcDbAssocGeomDependency
  3
ObjectDBX Classes
 90
     1025
 91
        0
280
     0
281
     0
  0
CLASS
  1
ACDBASSOCDEPENDENCY
  2
AcDbAssocDependency
  3
ObjectDBX Classes
 90
     1025
 91
        0
280
     0
281
     0
  0
CLASS
  1
NPOCOLLECTION
  2
AcDbImpNonPersistentObjectsCollection
  3
ObjectDBX Classes
 90
     1153
 91
        0
280
     0
281
     0
  0
CLASS
  1
SOLID_BACKGROUND
  2
AcDbSolidBackground
  3
SCENEOE
 90
     4095
 91
        0
280
     0
281
     0
  0
CLASS
  1
CELLSTYLEMAP
  2
AcDbCellStyleMap
  3
ObjectDBX Classes
 90
     1152
 91
        1
280
     0
281
     0
  0
ENDSEC
  0
SECTION
  2
TABLES
  0
TABLE
  2
VPORT
  5
8
330
0
100
AcDbSymbolTable
 70
     1
  0
VPORT
  5
74
330
8
100
AcDbSymbolTableRecord
100
AcDbViewportTableRecord
  2
*Active
 70
     0
 10
0.0
 20
0.0
 11
1.0
 21
1.0
 12
38.34897280042901
 22
157.0588162817295
 13
0.0
 23
0.0
 14
1.0
 24
1.0
 15
0.0
 25
0.0
 16
0.0000000000002558
 26
0.0
 36
1178.064247862759
 17
154.2589616775512
 27
95.34900283813476
 37
0.0
 40
263.2932973514804
 41
2.318681318681318
 42
50.0
 43
0.0
 44
0.0
 50
0.0
 51
0.0
 71
     0
 72
   100
 73
     1
 74
     1
 75
     0
 76
     0
 77
     0
 78
     0
281
     0
 65
     1
110
0.0
120
0.0
130
0.0
111
1.0
121
0.0
131
0.0
112
0.0
122
1.0
132
0.0
 79
     0
146
0.0
348
2F
 60
     3
 61
     5
292
     1
282
     1
141
0.0
142
0.0
 63
   250
421
  3355443
1001
ACAD_NAV_VCDISPLAY
1070
     3
  0
ENDTAB
  0
TABLE
  2
LTYPE
  5
5
330
0
100
AcDbSymbolTable
 70
     2
  0
LTYPE
  5
5A
330
5
100
AcDbSymbolTableRecord
100
AcDbLinetypeTableRecord
  2
ByBlock
 70
     0
  3

 72
    65
 73
     0
 40
0.0
  0
LTYPE
  5
5B
330
5
100
AcDbSymbolTableRecord
100
AcDbLinetypeTableRecord
  2
ByLayer
 70
     0
  3

 72
    65
 73
     0
 40
0.0
  0
LTYPE
  5
5C
330
5
100
AcDbSymbolTableRecord
100
AcDbLinetypeTableRecord
  2
Continuous
 70
     0
  3
Solid line
 72
    65
 73
     0
 40
0.0
  0
LTYPE
  5
EFC
330
5
100
AcDbSymbolTableRecord
100
AcDbLinetypeTableRecord
  2
CENTER2
 70
     0
  3
Center (.5x) ___ _ ___ _ ___ _ ___ _ ___ _ ___
 72
    65
 73
     4
 40
1.125
 49
0.75
 74
     0
 49
-0.125
 74
     0
 49
0.125
 74
     0
 49
-0.125
 74
     0
  0
ENDTAB
  0
TABLE
  2
LAYER
  5
2
102
{ACAD_XDICTIONARY
360
348
102
}
330
0
100
AcDbSymbolTable
 70
     2
  0
LAYER
  5
54
102
{ACAD_XDICTIONARY
360
F1C
102
}
330
2
100
AcDbSymbolTableRecord
100
AcDbLayerTableRecord
  2
0
 70
     0
 62
     7
  6
Continuous
370
    -3
390
F
347
21
  0
LAYER
  5
1097
330
2
100
AcDbSymbolTableRecord
100
AcDbLayerTableRecord
  2
Defpoints
 70
     0
 62
     7
  6
Continuous
290
     0
370
    -3
390
F
347
21
  0
ENDTAB
  0
TABLE
  2
STYLE
  5
3
330
0
100
AcDbSymbolTable
 70
     2
  0
STYLE
  5
55
330
3
100
AcDbSymbolTableRecord
100
AcDbTextStyleTableRecord
  2
Standard
 70
     0
 40
0.0
 41
1.0
 50
0.0
 71
     0
 42
0.2
  3
txt
  4

  0
STYLE
  5
59
330
3
100
AcDbSymbolTableRecord
100
AcDbTextStyleTableRecord
  2
Annotative
 70
     0
 40
0.0
 41
1.0
 50
0.0
 71
     0
 42
0.2
  3
txt
  4

1001
AcadAnnotative
1000
AnnotativeData
1002
{
1070
     1
1070
     1
1002
}
  0
ENDTAB
  0
TABLE
  2
VIEW
  5
6
330
0
100
AcDbSymbolTable
 70
     0
  0
ENDTAB
  0
TABLE
  2
UCS
  5
7
330
0
100
AcDbSymbolTable
 70
     0
  0
ENDTAB
  0
TABLE
  2
APPID
  5
9
330
0
100
AcDbSymbolTable
 70
     8
  0
APPID
  5
56
330
9
100
AcDbSymbolTableRecord
100
AcDbRegAppTableRecord
  2
ACAD
 70
     0
  0
APPID
  5
5D
330
9
100
AcDbSymbolTableRecord
100
AcDbRegAppTableRecord
  2
AcadAnnotative
 70
     0
  0
APPID
  5
347
330
9
100
AcDbSymbolTableRecord
100
AcDbRegAppTableRecord
  2
ACAD_NAV_VCDISPLAY
 70
     0
  0
APPID
  5
205A
330
9
100
AcDbSymbolTableRecord
100
AcDbRegAppTableRecord
  2
ACAD_PSEXT
 70
     0
  0
APPID
  5
24FF
330
9
100
AcDbSymbolTableRecord
100
AcDbRegAppTableRecord
  2
ACAD_EXEMPT_FROM_CAD_STANDARDS
 70
     0
  0
APPID
  5
2551
330
9
100
AcDbSymbolTableRecord
100
AcDbRegAppTableRecord
  2
ACAD_DSTYLE_DIMJAG
 70
     0
  0
APPID
  5
2552
330
9
100
AcDbSymbolTableRecord
100
AcDbRegAppTableRecord
  2
ACAD_DSTYLE_DIMTALN
 70
     0
  0
APPID
  5
2553
330
9
100
AcDbSymbolTableRecord
100
AcDbRegAppTableRecord
  2
ACAD_DSTYLE_DIMBREAK
 70
     0
  0
ENDTAB
  0
TABLE
  2
DIMSTYLE
  5
A
330
0
100
AcDbSymbolTable
 70
     4
100
AcDbDimStyleTable
 71
     1
340
57
  0
DIMSTYLE
105
57
330
A
100
AcDbSymbolTableRecord
100
AcDbDimStyleTableRecord
  2
Standard
 70
     0
340
55
  0
DIMSTYLE
105
58
330
A
100
AcDbSymbolTableRecord
100
AcDbDimStyleTableRecord
  2
Annotative
 70
     0
340
55
1001
AcadAnnotative
1000
AnnotativeData
1002
{
1070
     1
1070
     1
1002
}
  0
DIMSTYLE
105
254F
330
A
100
AcDbSymbolTableRecord
100
AcDbDimStyleTableRecord
  2
ISO-25
 70
     0
 41
2.5
 42
0.625
 43
3.75
 44
1.25
 73
     0
 74
     0
 77
     1
 78
     8
140
2.5
141
2.5
143
0.03937007874016
147
0.625
171
     3
172
     1
271
     2
272
     2
274
     3
278
    44
283
     0
284
     8
340
55
  0
DIMSTYLE
105
2550
330
A
100
AcDbSymbolTableRecord
100
AcDbDimStyleTableRecord
  2
actually readable
 70
     0
 43
5.0
140
5.0
340
55
1001
ACAD_DSTYLE_DIMBREAK
1070
   391
1040
0.125
1001
ACAD_DSTYLE_DIMJAG
1070
   388
1040
1.5
1001
ACAD_DSTYLE_DIMTALN
1070
   392
1070
     0
  0
ENDTAB
  0
TABLE
  2
BLOCK_RECORD
  5
1
330
0
100
AcDbSymbolTable
 70
     8
  0
BLOCK_RECORD
  5
6F
102
{ACAD_XDICTIONARY
360
ED9
102
}
330
1
100
AcDbSymbolTableRecord
100
AcDbBlockTableRecord
  2
*Model_Space
340
72
 70
     0
280
     1
281
     0
  0
BLOCK_RECORD
  5
6B
330
1
100
AcDbSymbolTableRecord
100
AcDbBlockTableRecord
  2
*Paper_Space
340
6E
 70
     0
280
     1
281
     0
  0
BLOCK_RECORD
  5
F2D
102
{ACAD_XDICTIONARY
360
F32
102
}
330
1
100
AcDbSymbolTableRecord
100
AcDbBlockTableRecord
  2
A$C0F225A4D
340
0
 70
     0
280
     1
281
     0
  0
BLOCK_RECORD
  5
10C2
102
{ACAD_XDICTIONARY
360
10CF
102
}
330
1
100
AcDbSymbolTableRecord
100
AcDbBlockTableRecord
  2
A$C3DFD4D9F
340
0
 70
     0
280
     1
281
     0
  0
BLOCK_RECORD
  5
17EE
102
{ACAD_XDICTIONARY
360
1807
102
}
330
1
100
AcDbSymbolTableRecord
100
AcDbBlockTableRecord
  2
A$C3D1467F8
340
0
 70
     0
280
     1
281
     0
  0
BLOCK_RECORD
  5
180B
102
{ACAD_XDICTIONARY
360
1819
102
}
330
1
100
AcDbSymbolTableRecord
100
AcDbBlockTableRecord
  2
A$C5D740822
340
0
 70
     0
280
     1
281
     0
  0
BLOCK_RECORD
  5
1869
102
{ACAD_XDICTIONARY
360
1882
102
}
330
1
100
AcDbSymbolTableRecord
100
AcDbBlockTableRecord
  2
A$C3744172A
340
0
 70
     0
280
     1
281
     0
  0
BLOCK_RECORD
  5
2020
102
{ACAD_XDICTIONARY
360
2025
102
}
330
1
100
AcDbSymbolTableRecord
100
AcDbBlockTableRecord
  2
A$C665A32F3
340
0
 70
     0
280
     1
281
     0
  0
BLOCK_RECORD
  5
205B
102
{ACAD_XDICTIONARY
360
227C
102
}
330
1
100
AcDbSymbolTableRecord
100
AcDbBlockTableRecord
  2
A$C556D7AA5
340
0
 70
     0
280
     1
281
     0
  0
BLOCK_RECORD
  5
27A0
102
{ACAD_XDICTIONARY
360
27A2
102
}
330
1
100
AcDbSymbolTableRecord
100
AcDbBlockTableRecord
  2
A$C1399402D
340
0
 70
     0
280
     1
281
     0
  0
ENDTAB
  0
ENDSEC
  0
SECTION
  2
BLOCKS
  0
BLOCK
  5
70
330
6F
100
AcDbEntity
  8
0
100
AcDbBlockBegin
  2
*Model_Space
 70
     0
 10
0.0
 20
0.0
 30
0.0
  3
*Model_Space
  1

  0
ENDBLK
  5
71
330
6F
100
AcDbEntity
  8
0
100
AcDbBlockEnd
  0
BLOCK
  5
6C
330
6B
100
AcDbEntity
 67
     1
  8
0
100
AcDbBlockBegin
  2
*Paper_Space
 70
     0
 10
0.0
 20
0.0
 30
0.0
  3
*Paper_Space
  1

  0
ENDBLK
  5
6D
330
6B
100
AcDbEntity
 67
     1
  8
0
100
AcDbBlockEnd
  0
BLOCK
  5
F34
330
F2D
100
AcDbEntity
  8
0
100
AcDbBlockBegin
  2
A$C0F225A4D
 70
     0
 10
0.0
 20
0.0
 30
0.0
  3
A$C0F225A4D
  1

  0
LINE
  5
F2E
330
F2D
100
AcDbEntity
  8
0
 62
     0
100
AcDbLine
 10
-0.0000014741470977
 20
14.00099947315266
 30
0.0
 11
13.99899852585292
 21
14.00099947315266
 31
0.0
  0
LINE
  5
F2F
330
F2D
100
AcDbEntity
  8
0
 62
     0
100
AcDbLine
 10
13.99899852585292
 20
14.00099947315266
 30
0.0
 11
13.99899852585292
 21
-0.0000005268473444
 31
0.0
  0
LINE
  5
F30
330
F2D
100
AcDbEntity
  8
0
 62
     0
100
AcDbLine
 10
13.99899852585292
 20
-0.0000005268473444
 30
0.0
 11
-0.0000014741470977
 21
-0.0000005268473444
 31
0.0
  0
LINE
  5
F31
330
F2D
100
AcDbEntity
  8
0
 62
     0
100
AcDbLine
 10
-0.0000014741470977
 20
-0.0000005268473444
 30
0.0
 11
-0.0000014741470977
 21
14.00099947315266
 31
0.0
  0
ENDBLK
  5
F35
330
F2D
100
AcDbEntity
  8
0
100
AcDbBlockEnd
  0
BLOCK
  5
10D1
330
10C2
100
AcDbEntity
  8
0
100
AcDbBlockBegin
  2
A$C3DFD4D9F
 70
     0
 10
0.0
 20
0.0
 30
0.0
  3
A$C3DFD4D9F
  1

  0
LINE
  5
10C3
330
10C2
100
AcDbEntity
  8
0
  6
Continuous
100
AcDbLine
 10
25.04809907472685
 20
-0.0000001907328482
 30
0.0
 11
31.79779907472692
 21
-0.0000001907328482
 31
0.0
  0
LINE
  5
10C4
330
10C2
100
AcDbEntity
  8
0
 62
     0
100
AcDbLine
 10
-0.0000009252730422
 20
14.75099980926717
 30
0.0
 11
-0.0000009252730422
 21
0.7509998092671566
 31
0.0
  0
LINE
  5
10C5
330
10C2
100
AcDbEntity
  8
0
 62
     0
100
AcDbLine
 10
-0.0000009252730422
 20
0.7509998092671566
 30
0.0
 11
1.247899074726944
 21
0.7509998092671566
 31
0.0
  0
LINE
  5
10C6
330
10C2
100
AcDbEntity
  8
0
 62
     0
100
AcDbLine
 10
7.997599074726963
 20
0.7509998092671566
 30
0.0
 11
25.04809907472691
 21
0.7509998092671566
 31
0.0
  0
LINE
  5
10C7
330
10C2
100
AcDbEntity
  8
0
 62
     0
100
AcDbLine
 10
33.04899907472697
 20
0.7509998092671566
 30
0.0
 11
33.04899907472697
 21
14.75099980926717
 31
0.0
  0
LINE
  5
10C8
330
10C2
100
AcDbEntity
  8
0
 62
     0
100
AcDbLine
 10
33.04899907472697
 20
14.75099980926717
 30
0.0
 11
-0.0000009252730422
 21
14.75099980926717
 31
0.0
  0
LINE
  5
10C9
330
10C2
100
AcDbEntity
  8
0
  6
Continuous
100
AcDbLine
 10
1.247899074726944
 20
-0.0000001907328482
 30
0.0
 11
1.247899074726944
 21
0.7509998092671566
 31
0.0
  0
LINE
  5
10CA
330
10C2
100
AcDbEntity
  8
0
  6
Continuous
100
AcDbLine
 10
25.04809907472691
 20
0.7509998092671566
 30
0.0
 11
25.04809907472685
 21
-0.0000001907328482
 31
0.0
  0
LINE
  5
10CB
330
10C2
100
AcDbEntity
  8
0
  6
Continuous
100
AcDbLine
 10
31.79779907472692
 20
-0.0000001907328482
 30
0.0
 11
31.79779907472692
 21
0.7509998092671566
 31
0.0
  0
LINE
  5
10CC
330
10C2
100
AcDbEntity
  8
0
  6
Continuous
100
AcDbLine
 10
7.997599074726963
 20
0.7509998092671566
 30
0.0
 11
7.997599074726963
 21
-0.0000001907328482
 31
0.0
  0
LINE
  5
10CD
330
10C2
100
AcDbEntity
  8
0
  6
Continuous
100
AcDbLine
 10
33.04899907472697
 20
0.7509998092671566
 30
0.0
 11
31.79779907472692
 21
0.7509998092671566
 31
0.0
  0
LINE
  5
10CE
330
10C2
100
AcDbEntity
  8
0
  6
Continuous
100
AcDbLine
 10
1.247899074726944
 20
-0.0000001907328482
 30
0.0
 11
7.997599074726963
 21
-0.0000001907328482
 31
0.0
  0
ENDBLK
  5
10D2
330
10C2
100
AcDbEntity
  8
0
100
AcDbBlockEnd
  0
BLOCK
  5
1809
330
17EE
100
AcDbEntity
  8
0
100
AcDbBlockBegin
  2
A$C3D1467F8
 70
     0
 10
0.0
 20
0.0
 30
0.0
  3
A$C3D1467F8
  1

  0
LINE
  5
17EF
330
17EE
100
AcDbEntity
  8
0
  6
Continuous
 62
     3
100
AcDbLine
 10
1.249781784869071
 20
18.29930045790766
 30
0.0
 11
7.999781784869071
 21
18.29930045790766
 31
0.0
  0
LINE
  5
17F0
330
17EE
100
AcDbEntity
  8
0
 62
     0
100
AcDbLine
 10
177.400583133417
 20
0.0000004579079231
 30
0.0
 11
177.400583133417
 21
14.00110045790792
 31
0.0
  0
LINE
  5
17F1
330
17EE
100
AcDbEntity
  8
0
 62
     0
100
AcDbLine
 10
178.925583133417
 20
14.75070045790792
 30
0.0
 11
178.925583133417
 21
1.470400457907928
 31
0.0
  0
LINE
  5
17F2
330
17EE
100
AcDbEntity
  8
0
 62
     0
100
AcDbLine
 10
178.925583133417
 20
1.470400457907928
 30
0.0
 11
185.675583133417
 21
1.470400457907921
 31
0.0
  0
LINE
  5
17F3
330
17EE
100
AcDbEntity
  8
0
 62
     0
100
AcDbLine
 10
185.675583133417
 20
1.470400457907921
 30
0.0
 11
185.675583133417
 21
14.75070045790792
 31
0.0
  0
LINE
  5
17F4
330
17EE
100
AcDbEntity
  8
0
 62
     0
100
AcDbLine
 10
185.675583133417
 20
14.75070045790792
 30
0.0
 11
178.925583133417
 21
14.75070045790792
 31
0.0
  0
LINE
  5
17F5
330
17EE
100
AcDbEntity
  8
0
 62
     0
100
AcDbLine
 10
177.400583133417
 20
14.00110045790792
 30
0.0
 11
163.401583133417
 21
14.00110045790792
 31
0.0
  0
LINE
  5
17F6
330
17EE
100
AcDbEntity
  8
0
 62
     0
100
AcDbLine
 10
161.875583133417
 20
14.75070045790792
 30
0.0
 11
155.126583133417
 21
14.75070045790792
 31
0.0
  0
LINE
  5
17F7
330
17EE
100
AcDbEntity
  8
0
 62
     0
100
AcDbLine
 10
155.126583133417
 20
14.75070045790792
 30
0.0
 11
155.126583133417
 21
1.470400457907928
 31
0.0
  0
LINE
  5
17F8
330
17EE
100
AcDbEntity
  8
0
 62
     0
100
AcDbLine
 10
161.875583133417
 20
1.470400457907928
 30
0.0
 11
161.875583133417
 21
14.75070045790792
 31
0.0
  0
LINE
  5
17F9
330
17EE
100
AcDbEntity
  8
0
 62
     0
100
AcDbLine
 10
163.401583133417
 20
0.0000004579079231
 30
0.0
 11
177.400583133417
 21
0.0000004579079231
 31
0.0
  0
LINE
  5
17FA
330
17EE
100
AcDbEntity
  8
0
 62
     3
100
AcDbLine
 10
0.0000017848690845
 20
33.04970045790768
 30
0.0
 11
0.0000017848690845
 21
19.05000045790768
 31
0.0
  0
LINE
  5
17FB
330
17EE
100
AcDbEntity
  8
0
 62
     3
100
AcDbLine
 10
35.43059178486908
 20
19.05000045790768
 30
0.0
 11
35.43059178486908
 21
33.04970045790768
 31
0.0
  0
LINE
  5
17FC
330
17EE
100
AcDbEntity
  8
0
 62
     3
100
AcDbLine
 10
35.43059178486908
 20
33.04970045790768
 30
0.0
 11
0.0000017848690845
 21
33.04970045790768
 31
0.0
  0
LINE
  5
17FD
330
17EE
100
AcDbEntity
  8
0
  6
Continuous
100
AcDbLine
 10
163.401583133417
 20
14.00110045790792
 30
0.0
 11
163.401583133417
 21
0.0000004579079231
 31
0.0
  0
LINE
  5
17FE
330
17EE
100
AcDbEntity
  8
0
  6
Continuous
100
AcDbLine
 10
155.126583133417
 20
1.470400457907928
 30
0.0
 11
161.875583133417
 21
1.470400457907928
 31
0.0
  0
LINE
  5
17FF
330
17EE
100
AcDbEntity
  8
0
  6
Continuous
 62
     3
100
AcDbLine
 10
0.0000017848690845
 20
19.05000045790768
 30
0.0
 11
1.249781784869071
 21
19.05000045790768
 31
0.0
  0
LINE
  5
1800
330
17EE
100
AcDbEntity
  8
0
  6
Continuous
 62
     3
100
AcDbLine
 10
1.249781784869071
 20
19.05000045790768
 30
0.0
 11
1.249781784869071
 21
18.29930045790766
 31
0.0
  0
LINE
  5
1801
330
17EE
100
AcDbEntity
  8
0
  6
Continuous
 62
     3
100
AcDbLine
 10
7.999781784869071
 20
18.29930045790766
 30
0.0
 11
7.999781784869071
 21
19.05000045790768
 31
0.0
  0
LINE
  5
1802
330
17EE
100
AcDbEntity
  8
0
  6
Continuous
 62
     3
100
AcDbLine
 10
7.999781784869071
 20
19.05000045790768
 30
0.0
 11
25.04978178486914
 21
19.05000045790768
 31
0.0
  0
LINE
  5
1803
330
17EE
100
AcDbEntity
  8
0
  6
Continuous
 62
     3
100
AcDbLine
 10
25.04978178486914
 20
19.05000045790768
 30
0.0
 11
25.04978178486914
 21
18.29930045790766
 31
0.0
  0
LINE
  5
1804
330
17EE
100
AcDbEntity
  8
0
  6
Continuous
 62
     3
100
AcDbLine
 10
31.79878178486905
 20
18.29930045790766
 30
0.0
 11
31.79878178486905
 21
19.04900045790768
 31
0.0
  0
LINE
  5
1805
330
17EE
100
AcDbEntity
  8
0
  6
Continuous
 62
     3
100
AcDbLine
 10
31.79878178486905
 20
19.04900045790768
 30
0.0
 11
35.43059178486908
 21
19.05000045790768
 31
0.0
  0
LINE
  5
1806
330
17EE
100
AcDbEntity
  8
0
  6
Continuous
 62
     3
100
AcDbLine
 10
25.04978178486914
 20
18.29930045790766
 30
0.0
 11
31.79878178486905
 21
18.29930045790766
 31
0.0
  0
ENDBLK
  5
180A
330
17EE
100
AcDbEntity
  8
0
100
AcDbBlockEnd
  0
BLOCK
  5
181B
330
180B
100
AcDbEntity
  8
0
100
AcDbBlockBegin
  2
A$C5D740822
 70
     0
 10
0.0
 20
0.0
 30
0.0
  3
A$C5D740822
  1

  0
LINE
  5
180C
330
180B
100
AcDbEntity
  8
0
 62
     0
100
AcDbLine
 10
98.81929177352773
 20
0.0000004579079231
 30
0.0
 11
98.81929177352773
 21
14.00110045790792
 31
0.0
  0
LINE
  5
180D
330
180B
100
AcDbEntity
  8
0
 62
     0
100
AcDbLine
 10
100.3442917735277
 20
14.75070045790792
 30
0.0
 11
100.3442917735277
 21
1.470400457907928
 31
0.0
  0
LINE
  5
180E
330
180B
100
AcDbEntity
  8
0
 62
     0
100
AcDbLine
 10
100.3442917735277
 20
1.470400457907928
 30
0.0
 11
107.0942917735277
 21
1.470400457907921
 31
0.0
  0
LINE
  5
180F
330
180B
100
AcDbEntity
  8
0
 62
     0
100
AcDbLine
 10
107.0942917735277
 20
1.470400457907921
 30
0.0
 11
107.0942917735277
 21
14.75070045790792
 31
0.0
  0
LINE
  5
1810
330
180B
100
AcDbEntity
  8
0
 62
     0
100
AcDbLine
 10
107.0942917735277
 20
14.75070045790792
 30
0.0
 11
100.3442917735277
 21
14.75070045790792
 31
0.0
  0
LINE
  5
1811
330
180B
100
AcDbEntity
  8
0
 62
     0
100
AcDbLine
 10
98.81929177352773
 20
14.00110045790792
 30
0.0
 11
84.82029177352774
 21
14.00110045790792
 31
0.0
  0
LINE
  5
1812
330
180B
100
AcDbEntity
  8
0
 62
     0
100
AcDbLine
 10
83.29429177352773
 20
14.75070045790792
 30
0.0
 11
76.54529177352774
 21
14.75070045790792
 31
0.0
  0
LINE
  5
1813
330
180B
100
AcDbEntity
  8
0
 62
     0
100
AcDbLine
 10
76.54529177352774
 20
14.75070045790792
 30
0.0
 11
76.54529177352774
 21
1.470400457907928
 31
0.0
  0
LINE
  5
1814
330
180B
100
AcDbEntity
  8
0
 62
     0
100
AcDbLine
 10
83.29429177352773
 20
1.470400457907928
 30
0.0
 11
83.29429177352773
 21
14.75070045790792
 31
0.0
  0
LINE
  5
1815
330
180B
100
AcDbEntity
  8
0
 62
     0
100
AcDbLine
 10
84.82029177352774
 20
0.0000004579079231
 30
0.0
 11
98.81929177352773
 21
0.0000004579079231
 31
0.0
  0
LINE
  5
1816
330
180B
100
AcDbEntity
  8
0
 62
     3
100
AcDbLine
 10
13.99930042497979
 20
14.00110045790769
 30
0.0
 11
0.0000004249797882
 21
14.00110045790769
 31
0.0
  0
LINE
  5
1817
330
180B
100
AcDbEntity
  8
0
  6
Continuous
100
AcDbLine
 10
84.82029177352774
 20
14.00110045790792
 30
0.0
 11
84.82029177352774
 21
0.0000004579079231
 31
0.0
  0
LINE
  5
1818
330
180B
100
AcDbEntity
  8
0
  6
Continuous
100
AcDbLine
 10
76.54529177352774
 20
1.470400457907928
 30
0.0
 11
83.29429177352773
 21
1.470400457907928
 31
0.0
  0
ENDBLK
  5
181C
330
180B
100
AcDbEntity
  8
0
100
AcDbBlockEnd
  0
BLOCK
  5
1884
330
1869
100
AcDbEntity
  8
0
100
AcDbBlockBegin
  2
A$C3744172A
 70
     0
 10
0.0
 20
0.0
 30
0.0
  3
A$C3744172A
  1

  0
LINE
  5
186A
330
1869
100
AcDbEntity
  8
0
  6
Continuous
 62
     7
100
AcDbLine
 10
220.5370915113985
 20
76.19860104415626
 30
0.0
 11
227.2867915113986
 21
76.19860104415626
 31
0.0
  0
LINE
  5
186B
330
1869
100
AcDbEntity
  8
0
 62
     7
100
AcDbLine
 10
195.4889915113986
 20
90.94960104415628
 30
0.0
 11
195.4889915113986
 21
76.94960104415627
 31
0.0
  0
LINE
  5
186C
330
1869
100
AcDbEntity
  8
0
 62
     7
100
AcDbLine
 10
195.4889915113986
 20
76.94960104415627
 30
0.0
 11
196.7368915113986
 21
76.94960104415627
 31
0.0
  0
LINE
  5
186D
330
1869
100
AcDbEntity
  8
0
 62
     7
100
AcDbLine
 10
203.4865915113986
 20
76.94960104415627
 30
0.0
 11
220.5370915113986
 21
76.94960104415627
 31
0.0
  0
LINE
  5
186E
330
1869
100
AcDbEntity
  8
0
 62
     7
100
AcDbLine
 10
228.5379915113986
 20
76.94960104415627
 30
0.0
 11
228.5379915113986
 21
90.94960104415628
 31
0.0
  0
LINE
  5
186F
330
1869
100
AcDbEntity
  8
0
  6
Continuous
 62
     7
100
AcDbLine
 10
196.7368915113986
 20
76.19860104415626
 30
0.0
 11
196.7368915113986
 21
76.94960104415627
 31
0.0
  0
LINE
  5
1870
330
1869
100
AcDbEntity
  8
0
  6
Continuous
 62
     7
100
AcDbLine
 10
220.5370915113986
 20
76.94960104415627
 30
0.0
 11
220.5370915113985
 21
76.19860104415626
 31
0.0
  0
LINE
  5
1871
330
1869
100
AcDbEntity
  8
0
  6
Continuous
 62
     7
100
AcDbLine
 10
227.2867915113986
 20
76.19860104415626
 30
0.0
 11
227.2867915113986
 21
76.94960104415627
 31
0.0
  0
LINE
  5
1872
330
1869
100
AcDbEntity
  8
0
  6
Continuous
 62
     7
100
AcDbLine
 10
203.4865915113986
 20
76.94960104415627
 30
0.0
 11
203.4865915113986
 21
76.19860104415626
 31
0.0
  0
LINE
  5
1873
330
1869
100
AcDbEntity
  8
0
  6
Continuous
 62
     7
100
AcDbLine
 10
228.5379915113986
 20
76.94960104415627
 30
0.0
 11
227.2867915113986
 21
76.94960104415627
 31
0.0
  0
LINE
  5
1874
330
1869
100
AcDbEntity
  8
0
  6
Continuous
 62
     7
100
AcDbLine
 10
196.7368915113986
 20
76.19860104415626
 30
0.0
 11
203.4865915113986
 21
76.19860104415626
 31
0.0
  0
LINE
  5
1875
330
1869
100
AcDbEntity
  8
0
  6
Continuous
 62
     7
100
AcDbLine
 10
203.4898915113987
 20
91.70060104415629
 30
0.0
 11
196.7401915113986
 21
91.70060104415629
 31
0.0
  0
LINE
  5
1876
330
1869
100
AcDbEntity
  8
0
 62
     7
100
AcDbLine
 10
228.5379915113987
 20
90.94960104415628
 30
0.0
 11
227.2900915113986
 21
90.94960104415628
 31
0.0
  0
LINE
  5
1877
330
1869
100
AcDbEntity
  8
0
 62
     7
100
AcDbLine
 10
220.5403915113986
 20
90.94960104415628
 30
0.0
 11
203.4898915113987
 21
90.94960104415628
 31
0.0
  0
LINE
  5
1878
330
1869
100
AcDbEntity
  8
0
  6
Continuous
 62
     7
100
AcDbLine
 10
227.2900915113986
 20
91.70060104415629
 30
0.0
 11
227.2900915113986
 21
90.94960104415628
 31
0.0
  0
LINE
  5
1879
330
1869
100
AcDbEntity
  8
0
  6
Continuous
 62
     7
100
AcDbLine
 10
203.4898915113987
 20
90.94960104415628
 30
0.0
 11
203.4898915113987
 21
91.70060104415629
 31
0.0
  0
LINE
  5
187A
330
1869
100
AcDbEntity
  8
0
  6
Continuous
 62
     7
100
AcDbLine
 10
196.7401915113986
 20
91.70060104415629
 30
0.0
 11
196.7401915113986
 21
90.94960104415628
 31
0.0
  0
LINE
  5
187B
330
1869
100
AcDbEntity
  8
0
  6
Continuous
 62
     7
100
AcDbLine
 10
220.5403915113986
 20
90.94960104415628
 30
0.0
 11
220.5403915113986
 21
91.70060104415629
 31
0.0
  0
LINE
  5
187C
330
1869
100
AcDbEntity
  8
0
  6
Continuous
 62
     7
100
AcDbLine
 10
195.4889915113986
 20
90.94960104415628
 30
0.0
 11
196.7401915113986
 21
90.94960104415628
 31
0.0
  0
LINE
  5
187D
330
1869
100
AcDbEntity
  8
0
  6
Continuous
 62
     7
100
AcDbLine
 10
227.2900915113986
 20
91.70060104415629
 30
0.0
 11
220.5403915113986
 21
91.70060104415629
 31
0.0
  0
LINE
  5
187E
330
1869
100
AcDbEntity
  8
0
 62
     0
100
AcDbLine
 10
23.7990001628506
 20
15.50030104415602
 30
0.0
 11
23.79900016285063
 21
0.0000010441560221
 31
0.0
  0
LINE
  5
187F
330
1869
100
AcDbEntity
  8
0
 62
     0
100
AcDbLine
 10
30.54900016285063
 20
0.0000010441560292
 30
0.0
 11
30.54900016285063
 21
15.50030104415602
 31
0.0
  0
LINE
  5
1880
330
1869
100
AcDbEntity
  8
0
 62
     0
100
AcDbLine
 10
0.0000001628506254
 20
15.50030104415602
 30
0.0
 11
0.0000001628506254
 21
0.0000010441560292
 31
0.0
  0
LINE
  5
1881
330
1869
100
AcDbEntity
  8
0
 62
     0
100
AcDbLine
 10
6.74900016285062
 20
0.0000010441560292
 30
0.0
 11
6.74900016285062
 21
15.50030104415602
 31
0.0
  0
ENDBLK
  5
1885
330
1869
100
AcDbEntity
  8
0
100
AcDbBlockEnd
  0
BLOCK
  5
2027
330
2020
100
AcDbEntity
  8
0
100
AcDbBlockBegin
  2
A$C665A32F3
 70
     0
 10
0.0
 20
0.0
 30
0.0
  3
A$C665A32F3
  1

  0
LINE
  5
2021
330
2020
100
AcDbEntity
  8
0
 62
     0
100
AcDbLine
 10
-0.0000009145259128
 20
14.0009995300835
 30
0.0
 11
13.99899908547411
 21
14.0009995300835
 31
0.0
  0
LINE
  5
2022
330
2020
100
AcDbEntity
  8
0
 62
     0
100
AcDbLine
 10
13.99899908547411
 20
14.0009995300835
 30
0.0
 11
13.99899908547411
 21
-0.0000004699165004
 31
0.0
  0
LINE
  5
2023
330
2020
100
AcDbEntity
  8
0
 62
     0
100
AcDbLine
 10
13.99899908547411
 20
-0.0000004699165004
 30
0.0
 11
-0.0000009145259128
 21
-0.0000004699165004
 31
0.0
  0
LINE
  5
2024
330
2020
100
AcDbEntity
  8
0
 62
     0
100
AcDbLine
 10
-0.0000009145259128
 20
-0.0000004699165004
 30
0.0
 11
-0.0000009145259128
 21
14.0009995300835
 31
0.0
  0
ENDBLK
  5
2028
330
2020
100
AcDbEntity
  8
0
100
AcDbBlockEnd
  0
BLOCK
  5
227E
330
205B
100
AcDbEntity
  8
0
100
AcDbBlockBegin
  2
A$C556D7AA5
 70
     0
 10
0.0
 20
0.0
 30
0.0
  3
A$C556D7AA5
  1

  0
LINE
  5
205C
330
205B
100
AcDbEntity
  8
0
 62
     7
100
AcDbLine
 10
31.1446096164301
 20
48.10100027630818
 30
0.0
 11
31.1446096164301
 21
48.70000027630812
 31
0.0
  0
LINE
  5
205D
330
205B
100
AcDbEntity
  8
0
 62
     7
100
AcDbLine
 10
31.1446096164301
 20
48.70000027630812
 30
0.0
 11
31.94520961643013
 21
48.70000027630812
 31
0.0
  0
LINE
  5
205E
330
205B
100
AcDbEntity
  8
0
 62
     7
100
AcDbLine
 10
31.94520961643013
 20
48.70000027630812
 30
0.0
 11
31.94520961643013
 21
61.50200027630813
 31
0.0
  0
LINE
  5
205F
330
205B
100
AcDbEntity
  8
0
 62
     7
100
AcDbLine
 10
31.94520961643013
 20
61.50200027630813
 30
0.0
 11
31.1446096164301
 21
61.50200027630813
 31
0.0
  0
LINE
  5
2060
330
205B
100
AcDbEntity
  8
0
 62
     7
100
AcDbLine
 10
31.1446096164301
 20
61.50200027630813
 30
0.0
 11
31.1446096164301
 21
62.10000027630821
 31
0.0
  0
LINE
  5
2061
330
205B
100
AcDbEntity
  8
0
  6
Continuous
 62
     7
100
AcDbLine
 10
12.38280961643056
 20
62.10300027630814
 30
0.0
 11
31.1446096164301
 21
62.10000027630821
 31
0.0
  0
LINE
  5
2062
330
205B
100
AcDbEntity
  8
0
  6
Continuous
 62
     7
100
AcDbLine
 10
12.38280961643056
 20
48.10230027630808
 30
0.0
 11
31.1446096164301
 21
48.10100027630818
 31
0.0
  0
LINE
  5
2063
330
205B
100
AcDbEntity
  8
0
  6
Continuous
 62
     7
100
AcDbLine
 10
57.62505961643078
 20
24.00310027630818
 30
0.0
 11
74.0056596164309
 21
24.00310027630818
 31
0.0
  0
LINE
  5
2064
330
205B
100
AcDbEntity
  8
0
 62
     7
100
AcDbLine
 10
28.76205961643311
 20
10.00356027630818
 30
0.0
 11
28.76205961643311
 21
10.6030102763082
 31
0.0
  0
LINE
  5
2065
330
205B
100
AcDbEntity
  8
0
 62
     7
100
AcDbLine
 10
28.76205961643311
 20
10.6030102763082
 30
0.0
 11
29.56265961643308
 21
10.6030102763082
 31
0.0
  0
LINE
  5
2066
330
205B
100
AcDbEntity
  8
0
 62
     7
100
AcDbLine
 10
29.56265961643308
 20
10.6030102763082
 30
0.0
 11
29.56265961643308
 21
23.4036002763082
 31
0.0
  0
LINE
  5
2067
330
205B
100
AcDbEntity
  8
0
 62
     7
100
AcDbLine
 10
29.56265961643308
 20
23.4036002763082
 30
0.0
 11
28.76205961643311
 21
23.4036002763082
 31
0.0
  0
LINE
  5
2068
330
205B
100
AcDbEntity
  8
0
 62
     7
100
AcDbLine
 10
28.76205961643311
 20
23.4036002763082
 30
0.0
 11
28.76205961643311
 21
24.00310027630818
 31
0.0
  0
LINE
  5
2069
330
205B
100
AcDbEntity
  8
0
 62
     7
100
AcDbLine
 10
57.62505961643078
 20
24.00310027630818
 30
0.0
 11
57.62505961643078
 21
23.4036002763082
 31
0.0
  0
LINE
  5
206A
330
205B
100
AcDbEntity
  8
0
 62
     7
100
AcDbLine
 10
57.62505961643078
 20
23.4036002763082
 30
0.0
 11
56.82565961643073
 21
23.4036002763082
 31
0.0
  0
LINE
  5
206B
330
205B
100
AcDbEntity
  8
0
 62
     7
100
AcDbLine
 10
56.82565961643073
 20
23.4036002763082
 30
0.0
 11
56.82565961643073
 21
10.6030102763082
 31
0.0
  0
LINE
  5
206C
330
205B
100
AcDbEntity
  8
0
 62
     7
100
AcDbLine
 10
12.38126961643107
 20
24.00310027630815
 30
0.0
 11
12.38126961643107
 21
23.40220027630815
 31
0.0
  0
LINE
  5
206D
330
205B
100
AcDbEntity
  8
0
 62
     7
100
AcDbLine
 10
12.38126961643107
 20
23.40220027630815
 30
0.0
 11
11.58063961643111
 21
23.40220027630815
 31
0.0
  0
LINE
  5
206E
330
205B
100
AcDbEntity
  8
0
 62
     7
100
AcDbLine
 10
11.58063961643111
 20
23.40220027630815
 30
0.0
 11
11.58063961643111
 21
10.60160027630814
 31
0.0
  0
LINE
  5
206F
330
205B
100
AcDbEntity
  8
0
 62
     7
100
AcDbLine
 10
11.58063961643111
 20
10.60160027630814
 30
0.0
 11
12.38126961643107
 21
10.60160027630814
 31
0.0
  0
LINE
  5
2070
330
205B
100
AcDbEntity
  8
0
 62
     7
100
AcDbLine
 10
12.38126961643107
 20
10.60160027630814
 30
0.0
 11
12.38126961643107
 21
10.00220027630814
 31
0.0
  0
LINE
  5
2071
330
205B
100
AcDbEntity
  8
0
 62
     7
100
AcDbLine
 10
50.19315961643101
 20
10.00220027630817
 30
0.0
 11
50.19315961643101
 21
10.60160027630817
 31
0.0
  0
LINE
  5
2072
330
205B
100
AcDbEntity
  8
0
 62
     7
100
AcDbLine
 10
50.19315961643101
 20
10.60160027630817
 30
0.0
 11
50.99255961643106
 21
10.60160027630817
 31
0.0
  0
LINE
  5
2073
330
205B
100
AcDbEntity
  8
0
 62
     7
100
AcDbLine
 10
50.99255961643106
 20
10.60160027630817
 30
0.0
 11
50.99255961643106
 21
23.40220027630818
 31
0.0
  0
LINE
  5
2074
330
205B
100
AcDbEntity
  8
0
 62
     7
100
AcDbLine
 10
50.99255961643106
 20
23.40220027630818
 30
0.0
 11
50.19315961643101
 21
23.40220027630818
 31
0.0
  0
LINE
  5
2075
330
205B
100
AcDbEntity
  8
0
 62
     7
100
AcDbLine
 10
50.19315961643101
 20
23.40220027630818
 30
0.0
 11
50.19315961643101
 21
24.00310027630818
 31
0.0
  0
LINE
  5
2076
330
205B
100
AcDbEntity
  8
0
 62
     7
100
AcDbLine
 10
74.0056596164309
 20
10.00220027630817
 30
0.0
 11
74.0056596164309
 21
10.60160027630817
 31
0.0
  0
LINE
  5
2077
330
205B
100
AcDbEntity
  8
0
 62
     7
100
AcDbLine
 10
74.0056596164309
 20
10.60160027630817
 30
0.0
 11
74.80645961643094
 21
10.60160027630817
 31
0.0
  0
LINE
  5
2078
330
205B
100
AcDbEntity
  8
0
 62
     7
100
AcDbLine
 10
74.80645961643094
 20
10.60160027630817
 30
0.0
 11
74.80645961643094
 21
23.40220027630818
 31
0.0
  0
LINE
  5
2079
330
205B
100
AcDbEntity
  8
0
 62
     7
100
AcDbLine
 10
74.80645961643094
 20
23.40220027630818
 30
0.0
 11
74.0056596164309
 21
23.40220027630818
 31
0.0
  0
LINE
  5
207A
330
205B
100
AcDbEntity
  8
0
 62
     7
100
AcDbLine
 10
74.0056596164309
 20
23.40220027630818
 30
0.0
 11
74.0056596164309
 21
24.00310027630818
 31
0.0
  0
LINE
  5
207B
330
205B
100
AcDbEntity
  8
0
 62
     7
100
AcDbLine
 10
84.41255961643074
 20
23.45310027630816
 30
0.0
 11
87.71175961643079
 21
23.45310027630816
 31
0.0
  0
LINE
  5
207C
330
205B
100
AcDbEntity
  8
0
 62
     7
100
AcDbLine
 10
87.71175961643079
 20
23.45310027630816
 30
0.0
 11
87.71175961643079
 21
9.252400276308179
 31
0.0
  0
LINE
  5
207D
330
205B
100
AcDbEntity
  8
0
 62
     7
100
AcDbLine
 10
87.71175961643079
 20
9.252400276308179
 30
0.0
 11
84.41255961643074
 21
9.252400276308179
 31
0.0
  0
LINE
  5
207E
330
205B
100
AcDbEntity
  8
0
 62
     7
100
AcDbLine
 10
84.41255961643074
 20
9.252400276308179
 30
0.0
 11
84.41255961643074
 21
23.45310027630816
 31
0.0
  0
LINE
  5
207F
330
205B
100
AcDbEntity
  8
0
 62
     7
100
AcDbLine
 10
108.2123596164308
 20
23.45310027630816
 30
0.0
 11
111.5123596164307
 21
23.45310027630816
 31
0.0
  0
LINE
  5
2080
330
205B
100
AcDbEntity
  8
0
 62
     7
100
AcDbLine
 10
111.5123596164307
 20
23.45310027630816
 30
0.0
 11
111.5123596164307
 21
9.252400276308179
 31
0.0
  0
LINE
  5
2081
330
205B
100
AcDbEntity
  8
0
 62
     7
100
AcDbLine
 10
111.5123596164307
 20
9.252400276308179
 30
0.0
 11
108.2123596164308
 21
9.252400276308179
 31
0.0
  0
LINE
  5
2082
330
205B
100
AcDbEntity
  8
0
 62
     7
100
AcDbLine
 10
108.2123596164308
 20
9.252400276308179
 30
0.0
 11
108.2123596164308
 21
23.45310027630816
 31
0.0
  0
LINE
  5
2083
330
205B
100
AcDbEntity
  8
0
 62
     7
100
AcDbLine
 10
33.81255961643077
 20
24.00310027630818
 30
0.0
 11
33.81255961643077
 21
23.40230027630818
 31
0.0
  0
LINE
  5
2084
330
205B
100
AcDbEntity
  8
0
 62
     7
100
AcDbLine
 10
33.81255961643077
 20
23.40230027630818
 30
0.0
 11
33.01185961643077
 21
23.40230027630818
 31
0.0
  0
LINE
  5
2085
330
205B
100
AcDbEntity
  8
0
 62
     7
100
AcDbLine
 10
33.01185961643077
 20
23.40230027630818
 30
0.0
 11
33.01185961643077
 21
10.60170027630818
 31
0.0
  0
LINE
  5
2086
330
205B
100
AcDbEntity
  8
0
 62
     7
100
AcDbLine
 10
33.01185961643077
 20
10.60170027630818
 30
0.0
 11
33.81255961643077
 21
10.60170027630818
 31
0.0
  0
LINE
  5
2087
330
205B
100
AcDbEntity
  8
0
 62
     7
100
AcDbLine
 10
33.81255961643077
 20
10.60170027630818
 30
0.0
 11
33.81255961643077
 21
10.00200027630816
 31
0.0
  0
LINE
  5
2088
330
205B
100
AcDbEntity
  8
0
 62
     7
100
AcDbLine
 10
57.62505961643078
 20
24.00310027630818
 30
0.0
 11
57.62505961643078
 21
23.40230027630818
 31
0.0
  0
LINE
  5
2089
330
205B
100
AcDbEntity
  8
0
 62
     7
100
AcDbLine
 10
57.62505961643078
 20
23.40230027630818
 30
0.0
 11
56.82565961643073
 21
23.40230027630818
 31
0.0
  0
LINE
  5
208A
330
205B
100
AcDbEntity
  8
0
 62
     7
100
AcDbLine
 10
56.82565961643073
 20
23.40230027630818
 30
0.0
 11
56.82565961643073
 21
10.60170027630818
 31
0.0
  0
LINE
  5
208B
330
205B
100
AcDbEntity
  8
0
 62
     7
100
AcDbLine
 10
90.96255961643075
 20
24.00310027630818
 30
0.0
 11
90.96255961643075
 21
23.40230027630818
 31
0.0
  0
LINE
  5
208C
330
205B
100
AcDbEntity
  8
0
 62
     7
100
AcDbLine
 10
90.96255961643075
 20
23.40230027630818
 30
0.0
 11
90.16175961643076
 21
23.40230027630818
 31
0.0
  0
LINE
  5
208D
330
205B
100
AcDbEntity
  8
0
 62
     7
100
AcDbLine
 10
90.16175961643076
 20
23.40230027630818
 30
0.0
 11
90.16175961643076
 21
10.60170027630818
 31
0.0
  0
LINE
  5
208E
330
205B
100
AcDbEntity
  8
0
 62
     7
100
AcDbLine
 10
90.16175961643076
 20
10.60170027630818
 30
0.0
 11
90.96255961643075
 21
10.60170027630818
 31
0.0
  0
LINE
  5
208F
330
205B
100
AcDbEntity
  8
0
 62
     7
100
AcDbLine
 10
90.96255961643075
 20
10.60170027630818
 30
0.0
 11
90.96255961643075
 21
10.00200027630816
 31
0.0
  0
LINE
  5
2090
330
205B
100
AcDbEntity
  8
0
 62
     7
100
AcDbLine
 10
90.96255961643075
 20
10.00200027630816
 30
0.0
 11
104.9618596164308
 21
10.00200027630816
 31
0.0
  0
LINE
  5
2091
330
205B
100
AcDbEntity
  8
0
 62
     7
100
AcDbLine
 10
104.9618596164308
 20
10.00200027630816
 30
0.0
 11
104.9618596164308
 21
10.60170027630818
 31
0.0
  0
LINE
  5
2092
330
205B
100
AcDbEntity
  8
0
 62
     7
100
AcDbLine
 10
104.9618596164308
 20
10.60170027630818
 30
0.0
 11
105.7626596164307
 21
10.60170027630818
 31
0.0
  0
LINE
  5
2093
330
205B
100
AcDbEntity
  8
0
 62
     7
100
AcDbLine
 10
105.7626596164307
 20
10.60170027630818
 30
0.0
 11
105.7626596164307
 21
23.40230027630818
 31
0.0
  0
LINE
  5
2094
330
205B
100
AcDbEntity
  8
0
 62
     7
100
AcDbLine
 10
105.7626596164307
 20
23.40230027630818
 30
0.0
 11
104.9618596164308
 21
23.40230027630818
 31
0.0
  0
LINE
  5
2095
330
205B
100
AcDbEntity
  8
0
 62
     7
100
AcDbLine
 10
104.9618596164308
 20
23.40230027630818
 30
0.0
 11
104.9618596164308
 21
24.00310027630818
 31
0.0
  0
LINE
  5
2096
330
205B
100
AcDbEntity
  8
0
 62
     7
100
AcDbLine
 10
104.9618596164308
 20
24.00310027630818
 30
0.0
 11
90.96255961643075
 21
24.00310027630818
 31
0.0
  0
LINE
  5
2097
330
205B
100
AcDbEntity
  8
0
 62
     7
100
AcDbLine
 10
119.5373596164308
 20
24.00310027630818
 30
0.0
 11
119.5373596164308
 21
23.40230027630818
 31
0.0
  0
LINE
  5
2098
330
205B
100
AcDbEntity
  8
0
 62
     7
100
AcDbLine
 10
119.5373596164308
 20
23.40230027630818
 30
0.0
 11
118.7363596164308
 21
23.40230027630818
 31
0.0
  0
LINE
  5
2099
330
205B
100
AcDbEntity
  8
0
 62
     7
100
AcDbLine
 10
118.7363596164308
 20
23.40230027630818
 30
0.0
 11
118.7363596164308
 21
10.60170027630818
 31
0.0
  0
LINE
  5
209A
330
205B
100
AcDbEntity
  8
0
 62
     7
100
AcDbLine
 10
118.7363596164308
 20
10.60170027630818
 30
0.0
 11
119.5373596164308
 21
10.60170027630818
 31
0.0
  0
LINE
  5
209B
330
205B
100
AcDbEntity
  8
0
 62
     7
100
AcDbLine
 10
119.5373596164308
 20
10.60170027630818
 30
0.0
 11
119.5373596164308
 21
10.00200027630816
 31
0.0
  0
LINE
  5
209C
330
205B
100
AcDbEntity
  8
0
 62
     7
100
AcDbLine
 10
119.5373596164308
 20
10.00200027630816
 30
0.0
 11
133.5373596164307
 21
10.00200027630816
 31
0.0
  0
LINE
  5
209D
330
205B
100
AcDbEntity
  8
0
 62
     7
100
AcDbLine
 10
133.5373596164307
 20
10.00200027630816
 30
0.0
 11
133.5373596164307
 21
10.60170027630818
 31
0.0
  0
LINE
  5
209E
330
205B
100
AcDbEntity
  8
0
 62
     7
100
AcDbLine
 10
133.5373596164307
 20
10.60170027630818
 30
0.0
 11
134.3373596164307
 21
10.60170027630818
 31
0.0
  0
LINE
  5
209F
330
205B
100
AcDbEntity
  8
0
 62
     7
100
AcDbLine
 10
134.3373596164307
 20
10.60170027630818
 30
0.0
 11
134.3373596164307
 21
23.40230027630818
 31
0.0
  0
LINE
  5
20A0
330
205B
100
AcDbEntity
  8
0
 62
     7
100
AcDbLine
 10
134.3373596164307
 20
23.40230027630818
 30
0.0
 11
133.5373596164307
 21
23.40230027630818
 31
0.0
  0
LINE
  5
20A1
330
205B
100
AcDbEntity
  8
0
 62
     7
100
AcDbLine
 10
133.5373596164307
 20
23.40230027630818
 30
0.0
 11
133.5373596164307
 21
24.00310027630818
 31
0.0
  0
LINE
  5
20A2
330
205B
100
AcDbEntity
  8
0
 62
     7
100
AcDbLine
 10
133.5373596164307
 20
24.00310027630818
 30
0.0
 11
119.5373596164308
 21
24.00310027630818
 31
0.0
  0
LINE
  5
20A3
330
205B
100
AcDbEntity
  8
0
  6
Continuous
 62
     7
100
AcDbLine
 10
12.38126961643107
 20
24.00310027630815
 30
0.0
 11
28.76205961643311
 21
24.00310027630818
 31
0.0
  0
LINE
  5
20A4
330
205B
100
AcDbEntity
  8
0
  6
Continuous
 62
     7
100
AcDbLine
 10
12.38126961643107
 20
10.00220027630814
 30
0.0
 11
28.76205961643317
 21
10.0035602763082
 31
0.0
  0
LINE
  5
20A5
330
205B
100
AcDbEntity
  8
0
  6
Continuous
 62
     7
100
AcDbLine
 10
33.81255961643077
 20
24.00310027630818
 30
0.0
 11
50.19315961643101
 21
24.00310027630818
 31
0.0
  0
LINE
  5
20A6
330
205B
100
AcDbEntity
  8
0
  6
Continuous
 62
     7
100
AcDbLine
 10
33.81255961643077
 20
10.00200027630816
 30
0.0
 11
50.19315961643101
 21
10.00220027630817
 31
0.0
  0
LINE
  5
20A7
330
205B
100
AcDbEntity
  8
0
  6
Continuous
 62
     7
100
AcDbLine
 10
57.62505961643078
 20
10.00200027630816
 30
0.0
 11
74.0056596164309
 21
10.00220027630817
 31
0.0
  0
LINE
  5
20A8
330
205B
100
AcDbEntity
  8
0
 62
     7
100
AcDbLine
 10
118.735619616431
 20
10.60170027630818
 30
0.0
 11
119.5366196164311
 21
10.60170027630818
 31
0.0
  0
LINE
  5
20A9
330
205B
100
AcDbEntity
  8
0
 62
     7
100
AcDbLine
 10
119.5366196164311
 20
10.60170027630818
 30
0.0
 11
119.5366196164311
 21
10.00200027630816
 31
0.0
  0
LINE
  5
20AA
330
205B
100
AcDbEntity
  8
0
 62
     7
100
AcDbLine
 10
15.35570961643102
 20
42.50310027630817
 30
0.0
 11
18.65471961643104
 21
42.50310027630817
 31
0.0
  0
LINE
  5
20AB
330
205B
100
AcDbEntity
  8
0
 62
     7
100
AcDbLine
 10
18.65471961643104
 20
42.50310027630817
 30
0.0
 11
18.65471961643104
 21
28.30130027630817
 31
0.0
  0
LINE
  5
20AC
330
205B
100
AcDbEntity
  8
0
 62
     7
100
AcDbLine
 10
18.65471961643104
 20
28.30130027630817
 30
0.0
 11
15.35570961643102
 21
28.30130027630817
 31
0.0
  0
LINE
  5
20AD
330
205B
100
AcDbEntity
  8
0
 62
     7
100
AcDbLine
 10
15.35570961643102
 20
28.30130027630817
 30
0.0
 11
15.35570961643102
 21
42.50310027630817
 31
0.0
  0
LINE
  5
20AE
330
205B
100
AcDbEntity
  8
0
 62
     7
100
AcDbLine
 10
39.15581961643102
 20
42.50310027630817
 30
0.0
 11
42.45481961643102
 21
42.50310027630817
 31
0.0
  0
LINE
  5
20AF
330
205B
100
AcDbEntity
  8
0
 62
     7
100
AcDbLine
 10
42.45481961643102
 20
42.50310027630817
 30
0.0
 11
42.45481961643102
 21
28.30130027630817
 31
0.0
  0
LINE
  5
20B0
330
205B
100
AcDbEntity
  8
0
 62
     7
100
AcDbLine
 10
42.45481961643102
 20
28.30130027630817
 30
0.0
 11
39.15581961643102
 21
28.30130027630817
 31
0.0
  0
LINE
  5
20B1
330
205B
100
AcDbEntity
  8
0
 62
     7
100
AcDbLine
 10
39.15581961643102
 20
28.30130027630817
 30
0.0
 11
39.15581961643102
 21
42.50310027630817
 31
0.0
  0
LINE
  5
20B2
330
205B
100
AcDbEntity
  8
0
 62
     7
100
AcDbLine
 10
21.90551961643103
 20
43.05170027630817
 30
0.0
 11
21.90551961643103
 21
42.45230027630817
 31
0.0
  0
LINE
  5
20B3
330
205B
100
AcDbEntity
  8
0
 62
     7
100
AcDbLine
 10
21.90551961643103
 20
42.45230027630817
 30
0.0
 11
21.10491961643103
 21
42.45230027630817
 31
0.0
  0
LINE
  5
20B4
330
205B
100
AcDbEntity
  8
0
 62
     7
100
AcDbLine
 10
21.10491961643103
 20
42.45230027630817
 30
0.0
 11
21.10491961643103
 21
29.65170027630816
 31
0.0
  0
LINE
  5
20B5
330
205B
100
AcDbEntity
  8
0
 62
     7
100
AcDbLine
 10
21.10491961643103
 20
29.65170027630816
 30
0.0
 11
21.90551961643103
 21
29.65170027630816
 31
0.0
  0
LINE
  5
20B6
330
205B
100
AcDbEntity
  8
0
 62
     7
100
AcDbLine
 10
21.90551961643103
 20
29.65170027630816
 30
0.0
 11
21.90551961643103
 21
29.05200027630818
 31
0.0
  0
LINE
  5
20B7
330
205B
100
AcDbEntity
  8
0
 62
     7
100
AcDbLine
 10
21.90551961643103
 20
29.05200027630818
 30
0.0
 11
35.90501961643102
 21
29.05200027630818
 31
0.0
  0
LINE
  5
20B8
330
205B
100
AcDbEntity
  8
0
 62
     7
100
AcDbLine
 10
35.90501961643102
 20
29.05200027630818
 30
0.0
 11
35.90501961643102
 21
29.65170027630816
 31
0.0
  0
LINE
  5
20B9
330
205B
100
AcDbEntity
  8
0
 62
     7
100
AcDbLine
 10
35.90501961643102
 20
29.65170027630816
 30
0.0
 11
36.70561961643102
 21
29.65170027630816
 31
0.0
  0
LINE
  5
20BA
330
205B
100
AcDbEntity
  8
0
 62
     7
100
AcDbLine
 10
36.70561961643102
 20
29.65170027630816
 30
0.0
 11
36.70561961643102
 21
42.45230027630817
 31
0.0
  0
LINE
  5
20BB
330
205B
100
AcDbEntity
  8
0
 62
     7
100
AcDbLine
 10
36.70561961643102
 20
42.45230027630817
 30
0.0
 11
35.90501961643102
 21
42.45230027630817
 31
0.0
  0
LINE
  5
20BC
330
205B
100
AcDbEntity
  8
0
 62
     7
100
AcDbLine
 10
35.90501961643102
 20
42.45230027630817
 30
0.0
 11
35.90501961643102
 21
43.05170027630817
 31
0.0
  0
LINE
  5
20BD
330
205B
100
AcDbEntity
  8
0
 62
     7
100
AcDbLine
 10
35.90501961643102
 20
43.05170027630817
 30
0.0
 11
21.90551961643103
 21
43.05170027630817
 31
0.0
  0
LINE
  5
20BE
330
205B
100
AcDbEntity
  8
0
 62
     7
100
AcDbLine
 10
52.86181961643103
 20
43.05170027630817
 30
0.0
 11
52.86181961643103
 21
42.45230027630817
 31
0.0
  0
LINE
  5
20BF
330
205B
100
AcDbEntity
  8
0
 62
     7
100
AcDbLine
 10
52.86181961643103
 20
42.45230027630817
 30
0.0
 11
52.06101961643103
 21
42.45230027630817
 31
0.0
  0
LINE
  5
20C0
330
205B
100
AcDbEntity
  8
0
 62
     7
100
AcDbLine
 10
52.06101961643103
 20
42.45230027630817
 30
0.0
 11
52.06101961643103
 21
29.65170027630816
 31
0.0
  0
LINE
  5
20C1
330
205B
100
AcDbEntity
  8
0
 62
     7
100
AcDbLine
 10
52.06101961643103
 20
29.65170027630816
 30
0.0
 11
52.86181961643103
 21
29.65170027630816
 31
0.0
  0
LINE
  5
20C2
330
205B
100
AcDbEntity
  8
0
 62
     7
100
AcDbLine
 10
52.86181961643103
 20
29.65170027630816
 30
0.0
 11
52.86181961643103
 21
29.05200027630818
 31
0.0
  0
LINE
  5
20C3
330
205B
100
AcDbEntity
  8
0
 62
     7
100
AcDbLine
 10
52.86181961643103
 20
29.05200027630818
 30
0.0
 11
66.86111961643101
 21
29.05200027630818
 31
0.0
  0
LINE
  5
20C4
330
205B
100
AcDbEntity
  8
0
 62
     7
100
AcDbLine
 10
66.86111961643101
 20
29.05200027630818
 30
0.0
 11
66.86111961643101
 21
29.65170027630816
 31
0.0
  0
LINE
  5
20C5
330
205B
100
AcDbEntity
  8
0
 62
     7
100
AcDbLine
 10
66.86111961643101
 20
29.65170027630816
 30
0.0
 11
67.66191961643102
 21
29.65170027630816
 31
0.0
  0
LINE
  5
20C6
330
205B
100
AcDbEntity
  8
0
 62
     7
100
AcDbLine
 10
67.66191961643102
 20
29.65170027630816
 30
0.0
 11
67.66191961643102
 21
42.45230027630817
 31
0.0
  0
LINE
  5
20C7
330
205B
100
AcDbEntity
  8
0
 62
     7
100
AcDbLine
 10
67.66191961643102
 20
42.45230027630817
 30
0.0
 11
66.86111961643101
 21
42.45230027630817
 31
0.0
  0
LINE
  5
20C8
330
205B
100
AcDbEntity
  8
0
 62
     7
100
AcDbLine
 10
66.86111961643101
 20
42.45230027630817
 30
0.0
 11
66.86111961643101
 21
43.05170027630817
 31
0.0
  0
LINE
  5
20C9
330
205B
100
AcDbEntity
  8
0
 62
     7
100
AcDbLine
 10
66.86111961643101
 20
43.05170027630817
 30
0.0
 11
52.86181961643103
 21
43.05170027630817
 31
0.0
  0
LINE
  5
20CA
330
205B
100
AcDbEntity
  8
0
 62
     7
100
AcDbLine
 10
71.91181961643102
 20
43.05170027630817
 30
0.0
 11
71.91181961643102
 21
42.45230027630817
 31
0.0
  0
LINE
  5
20CB
330
205B
100
AcDbEntity
  8
0
 62
     7
100
AcDbLine
 10
71.91181961643102
 20
42.45230027630817
 30
0.0
 11
71.11101961643104
 21
42.45230027630817
 31
0.0
  0
LINE
  5
20CC
330
205B
100
AcDbEntity
  8
0
 62
     7
100
AcDbLine
 10
71.11101961643104
 20
42.45230027630817
 30
0.0
 11
71.11101961643104
 21
29.65170027630816
 31
0.0
  0
LINE
  5
20CD
330
205B
100
AcDbEntity
  8
0
 62
     7
100
AcDbLine
 10
71.11101961643104
 20
29.65170027630816
 30
0.0
 11
71.91181961643102
 21
29.65170027630816
 31
0.0
  0
LINE
  5
20CE
330
205B
100
AcDbEntity
  8
0
 62
     7
100
AcDbLine
 10
71.91181961643102
 20
29.65170027630816
 30
0.0
 11
71.91181961643102
 21
29.05200027630818
 31
0.0
  0
LINE
  5
20CF
330
205B
100
AcDbEntity
  8
0
 62
     7
100
AcDbLine
 10
71.91181961643102
 20
29.05200027630818
 30
0.0
 11
85.91111961643102
 21
29.05200027630818
 31
0.0
  0
LINE
  5
20D0
330
205B
100
AcDbEntity
  8
0
 62
     7
100
AcDbLine
 10
85.91111961643102
 20
29.05200027630818
 30
0.0
 11
85.91111961643102
 21
29.65170027630816
 31
0.0
  0
LINE
  5
20D1
330
205B
100
AcDbEntity
  8
0
 62
     7
100
AcDbLine
 10
85.91111961643102
 20
29.65170027630816
 30
0.0
 11
86.71191961643103
 21
29.65170027630816
 31
0.0
  0
LINE
  5
20D2
330
205B
100
AcDbEntity
  8
0
 62
     7
100
AcDbLine
 10
86.71191961643103
 20
29.65170027630816
 30
0.0
 11
86.71191961643103
 21
42.45230027630817
 31
0.0
  0
LINE
  5
20D3
330
205B
100
AcDbEntity
  8
0
 62
     7
100
AcDbLine
 10
86.71191961643103
 20
42.45230027630817
 30
0.0
 11
85.91111961643102
 21
42.45230027630817
 31
0.0
  0
LINE
  5
20D4
330
205B
100
AcDbEntity
  8
0
 62
     7
100
AcDbLine
 10
85.91111961643102
 20
42.45230027630817
 30
0.0
 11
85.91111961643102
 21
43.05170027630817
 31
0.0
  0
LINE
  5
20D5
330
205B
100
AcDbEntity
  8
0
 62
     7
100
AcDbLine
 10
85.91111961643102
 20
43.05170027630817
 30
0.0
 11
71.91181961643102
 21
43.05170027630817
 31
0.0
  0
LINE
  5
20D6
330
205B
100
AcDbEntity
  8
0
 62
     7
100
AcDbLine
 10
90.96181961643102
 20
43.05170027630817
 30
0.0
 11
90.96181961643102
 21
42.45230027630817
 31
0.0
  0
LINE
  5
20D7
330
205B
100
AcDbEntity
  8
0
 62
     7
100
AcDbLine
 10
90.96181961643102
 20
42.45230027630817
 30
0.0
 11
90.16101961643105
 21
42.45230027630817
 31
0.0
  0
LINE
  5
20D8
330
205B
100
AcDbEntity
  8
0
 62
     7
100
AcDbLine
 10
90.16101961643105
 20
42.45230027630817
 30
0.0
 11
90.16101961643105
 21
29.65170027630816
 31
0.0
  0
LINE
  5
20D9
330
205B
100
AcDbEntity
  8
0
 62
     7
100
AcDbLine
 10
90.16101961643105
 20
29.65170027630816
 30
0.0
 11
90.96181961643102
 21
29.65170027630816
 31
0.0
  0
LINE
  5
20DA
330
205B
100
AcDbEntity
  8
0
 62
     7
100
AcDbLine
 10
90.96181961643102
 20
29.65170027630816
 30
0.0
 11
90.96181961643102
 21
29.05200027630818
 31
0.0
  0
LINE
  5
20DB
330
205B
100
AcDbEntity
  8
0
 62
     7
100
AcDbLine
 10
90.96181961643102
 20
29.05200027630818
 30
0.0
 11
104.961119616431
 21
29.05200027630818
 31
0.0
  0
LINE
  5
20DC
330
205B
100
AcDbEntity
  8
0
 62
     7
100
AcDbLine
 10
104.961119616431
 20
29.05200027630818
 30
0.0
 11
104.961119616431
 21
29.65170027630816
 31
0.0
  0
LINE
  5
20DD
330
205B
100
AcDbEntity
  8
0
 62
     7
100
AcDbLine
 10
104.961119616431
 20
29.65170027630816
 30
0.0
 11
105.761919616431
 21
29.65170027630816
 31
0.0
  0
LINE
  5
20DE
330
205B
100
AcDbEntity
  8
0
 62
     7
100
AcDbLine
 10
105.761919616431
 20
29.65170027630816
 30
0.0
 11
105.761919616431
 21
42.45230027630817
 31
0.0
  0
LINE
  5
20DF
330
205B
100
AcDbEntity
  8
0
 62
     7
100
AcDbLine
 10
105.761919616431
 20
42.45230027630817
 30
0.0
 11
104.961119616431
 21
42.45230027630817
 31
0.0
  0
LINE
  5
20E0
330
205B
100
AcDbEntity
  8
0
 62
     7
100
AcDbLine
 10
104.961119616431
 20
42.45230027630817
 30
0.0
 11
104.961119616431
 21
43.05170027630817
 31
0.0
  0
LINE
  5
20E1
330
205B
100
AcDbEntity
  8
0
 62
     7
100
AcDbLine
 10
104.961119616431
 20
43.05170027630817
 30
0.0
 11
90.96181961643102
 21
43.05170027630817
 31
0.0
  0
LINE
  5
20E2
330
205B
100
AcDbEntity
  8
0
 62
     7
100
AcDbLine
 10
110.011619616431
 20
43.05170027630817
 30
0.0
 11
110.011619616431
 21
42.45230027630817
 31
0.0
  0
LINE
  5
20E3
330
205B
100
AcDbEntity
  8
0
 62
     7
100
AcDbLine
 10
110.011619616431
 20
42.45230027630817
 30
0.0
 11
109.2106196164311
 21
42.45230027630817
 31
0.0
  0
LINE
  5
20E4
330
205B
100
AcDbEntity
  8
0
 62
     7
100
AcDbLine
 10
109.2106196164311
 20
42.45230027630817
 30
0.0
 11
109.2106196164311
 21
29.65170027630816
 31
0.0
  0
LINE
  5
20E5
330
205B
100
AcDbEntity
  8
0
 62
     7
100
AcDbLine
 10
109.2106196164311
 20
29.65170027630816
 30
0.0
 11
110.011619616431
 21
29.65170027630816
 31
0.0
  0
LINE
  5
20E6
330
205B
100
AcDbEntity
  8
0
 62
     7
100
AcDbLine
 10
110.011619616431
 20
29.65170027630816
 30
0.0
 11
110.011619616431
 21
29.05200027630818
 31
0.0
  0
LINE
  5
20E7
330
205B
100
AcDbEntity
  8
0
 62
     7
100
AcDbLine
 10
110.011619616431
 20
29.05200027630818
 30
0.0
 11
124.011619616431
 21
29.05200027630818
 31
0.0
  0
LINE
  5
20E8
330
205B
100
AcDbEntity
  8
0
 62
     7
100
AcDbLine
 10
124.011619616431
 20
29.05200027630818
 30
0.0
 11
124.011619616431
 21
29.65170027630816
 31
0.0
  0
LINE
  5
20E9
330
205B
100
AcDbEntity
  8
0
 62
     7
100
AcDbLine
 10
124.011619616431
 20
29.65170027630816
 30
0.0
 11
124.8116196164311
 21
29.65170027630816
 31
0.0
  0
LINE
  5
20EA
330
205B
100
AcDbEntity
  8
0
 62
     7
100
AcDbLine
 10
124.8116196164311
 20
29.65170027630816
 30
0.0
 11
124.8116196164311
 21
42.45230027630817
 31
0.0
  0
LINE
  5
20EB
330
205B
100
AcDbEntity
  8
0
 62
     7
100
AcDbLine
 10
124.8116196164311
 20
42.45230027630817
 30
0.0
 11
124.011619616431
 21
42.45230027630817
 31
0.0
  0
LINE
  5
20EC
330
205B
100
AcDbEntity
  8
0
 62
     7
100
AcDbLine
 10
124.011619616431
 20
42.45230027630817
 30
0.0
 11
124.011619616431
 21
43.05170027630817
 31
0.0
  0
LINE
  5
20ED
330
205B
100
AcDbEntity
  8
0
 62
     7
100
AcDbLine
 10
124.011619616431
 20
43.05170027630817
 30
0.0
 11
110.011619616431
 21
43.05170027630817
 31
0.0
  0
LINE
  5
20EE
330
205B
100
AcDbEntity
  8
0
 62
     7
100
AcDbLine
 10
129.0616196164311
 20
43.05170027630817
 30
0.0
 11
129.0616196164311
 21
42.45230027630817
 31
0.0
  0
LINE
  5
20EF
330
205B
100
AcDbEntity
  8
0
 62
     7
100
AcDbLine
 10
129.0616196164311
 20
42.45230027630817
 30
0.0
 11
128.260619616431
 21
42.45230027630817
 31
0.0
  0
LINE
  5
20F0
330
205B
100
AcDbEntity
  8
0
 62
     7
100
AcDbLine
 10
128.260619616431
 20
42.45230027630817
 30
0.0
 11
128.260619616431
 21
29.65170027630816
 31
0.0
  0
LINE
  5
20F1
330
205B
100
AcDbEntity
  8
0
 62
     7
100
AcDbLine
 10
128.260619616431
 20
29.65170027630816
 30
0.0
 11
129.0616196164311
 21
29.65170027630816
 31
0.0
  0
LINE
  5
20F2
330
205B
100
AcDbEntity
  8
0
 62
     7
100
AcDbLine
 10
129.0616196164311
 20
29.65170027630816
 30
0.0
 11
129.0616196164311
 21
29.05200027630818
 31
0.0
  0
LINE
  5
20F3
330
205B
100
AcDbEntity
  8
0
 62
     7
100
AcDbLine
 10
129.0616196164311
 20
29.05200027630818
 30
0.0
 11
143.061619616431
 21
29.05200027630818
 31
0.0
  0
LINE
  5
20F4
330
205B
100
AcDbEntity
  8
0
 62
     7
100
AcDbLine
 10
143.061619616431
 20
29.05200027630818
 30
0.0
 11
143.061619616431
 21
29.65170027630816
 31
0.0
  0
LINE
  5
20F5
330
205B
100
AcDbEntity
  8
0
 62
     7
100
AcDbLine
 10
143.061619616431
 20
29.65170027630816
 30
0.0
 11
143.861619616431
 21
29.65170027630816
 31
0.0
  0
LINE
  5
20F6
330
205B
100
AcDbEntity
  8
0
 62
     7
100
AcDbLine
 10
143.861619616431
 20
29.65170027630816
 30
0.0
 11
143.861619616431
 21
42.45230027630817
 31
0.0
  0
LINE
  5
20F7
330
205B
100
AcDbEntity
  8
0
 62
     7
100
AcDbLine
 10
143.861619616431
 20
42.45230027630817
 30
0.0
 11
143.061619616431
 21
42.45230027630817
 31
0.0
  0
LINE
  5
20F8
330
205B
100
AcDbEntity
  8
0
 62
     7
100
AcDbLine
 10
143.061619616431
 20
42.45230027630817
 30
0.0
 11
143.061619616431
 21
43.05170027630817
 31
0.0
  0
LINE
  5
20F9
330
205B
100
AcDbEntity
  8
0
 62
     7
100
AcDbLine
 10
143.061619616431
 20
43.05170027630817
 30
0.0
 11
129.0616196164311
 21
43.05170027630817
 31
0.0
  0
LINE
  5
20FA
330
205B
100
AcDbEntity
  8
0
 62
     7
100
AcDbLine
 10
43.33681961643103
 20
62.10170027630818
 30
0.0
 11
43.33681961643103
 21
61.50230027630818
 31
0.0
  0
LINE
  5
20FB
330
205B
100
AcDbEntity
  8
0
 62
     7
100
AcDbLine
 10
43.33681961643103
 20
61.50230027630818
 30
0.0
 11
42.53611961643102
 21
61.50230027630818
 31
0.0
  0
LINE
  5
20FC
330
205B
100
AcDbEntity
  8
0
 62
     7
100
AcDbLine
 10
42.53611961643102
 20
61.50230027630818
 30
0.0
 11
42.53611961643102
 21
48.70170027630817
 31
0.0
  0
LINE
  5
20FD
330
205B
100
AcDbEntity
  8
0
 62
     7
100
AcDbLine
 10
42.53611961643102
 20
48.70170027630817
 30
0.0
 11
43.33681961643103
 21
48.70170027630817
 31
0.0
  0
LINE
  5
20FE
330
205B
100
AcDbEntity
  8
0
 62
     7
100
AcDbLine
 10
43.33681961643103
 20
48.70170027630817
 30
0.0
 11
43.33681961643103
 21
48.10200027630816
 31
0.0
  0
LINE
  5
20FF
330
205B
100
AcDbEntity
  8
0
 62
     7
100
AcDbLine
 10
43.33681961643103
 20
48.10200027630816
 30
0.0
 11
57.33611961643103
 21
48.10200027630816
 31
0.0
  0
LINE
  5
2100
330
205B
100
AcDbEntity
  8
0
 62
     7
100
AcDbLine
 10
57.33611961643103
 20
48.10200027630816
 30
0.0
 11
57.33611961643103
 21
48.70170027630817
 31
0.0
  0
LINE
  5
2101
330
205B
100
AcDbEntity
  8
0
 62
     7
100
AcDbLine
 10
57.33611961643103
 20
48.70170027630817
 30
0.0
 11
58.13691961643101
 21
48.70170027630817
 31
0.0
  0
LINE
  5
2102
330
205B
100
AcDbEntity
  8
0
 62
     7
100
AcDbLine
 10
58.13691961643101
 20
48.70170027630817
 30
0.0
 11
58.13691961643101
 21
61.50230027630818
 31
0.0
  0
LINE
  5
2103
330
205B
100
AcDbEntity
  8
0
 62
     7
100
AcDbLine
 10
58.13691961643101
 20
61.50230027630818
 30
0.0
 11
57.33611961643103
 21
61.50230027630818
 31
0.0
  0
LINE
  5
2104
330
205B
100
AcDbEntity
  8
0
 62
     7
100
AcDbLine
 10
57.33611961643103
 20
61.50230027630818
 30
0.0
 11
57.33611961643103
 21
62.10170027630818
 31
0.0
  0
LINE
  5
2105
330
205B
100
AcDbEntity
  8
0
 62
     7
100
AcDbLine
 10
57.33611961643103
 20
62.10170027630818
 30
0.0
 11
43.33681961643103
 21
62.10170027630818
 31
0.0
  0
LINE
  5
2106
330
205B
100
AcDbEntity
  8
0
 62
     7
100
AcDbLine
 10
62.38681961643104
 20
62.10170027630818
 30
0.0
 11
62.38681961643104
 21
61.50230027630818
 31
0.0
  0
LINE
  5
2107
330
205B
100
AcDbEntity
  8
0
 62
     7
100
AcDbLine
 10
62.38681961643104
 20
61.50230027630818
 30
0.0
 11
61.58601961643103
 21
61.50230027630818
 31
0.0
  0
LINE
  5
2108
330
205B
100
AcDbEntity
  8
0
 62
     7
100
AcDbLine
 10
61.58601961643103
 20
61.50230027630818
 30
0.0
 11
61.58601961643103
 21
48.70170027630817
 31
0.0
  0
LINE
  5
2109
330
205B
100
AcDbEntity
  8
0
 62
     7
100
AcDbLine
 10
61.58601961643103
 20
48.70170027630817
 30
0.0
 11
62.38681961643104
 21
48.70170027630817
 31
0.0
  0
LINE
  5
210A
330
205B
100
AcDbEntity
  8
0
 62
     7
100
AcDbLine
 10
62.38681961643104
 20
48.70170027630817
 30
0.0
 11
62.38681961643104
 21
48.10200027630816
 31
0.0
  0
LINE
  5
210B
330
205B
100
AcDbEntity
  8
0
 62
     7
100
AcDbLine
 10
62.38681961643104
 20
48.10200027630816
 30
0.0
 11
76.38611961643104
 21
48.10200027630816
 31
0.0
  0
LINE
  5
210C
330
205B
100
AcDbEntity
  8
0
 62
     7
100
AcDbLine
 10
76.38611961643104
 20
48.10200027630816
 30
0.0
 11
76.38611961643104
 21
48.70170027630817
 31
0.0
  0
LINE
  5
210D
330
205B
100
AcDbEntity
  8
0
 62
     7
100
AcDbLine
 10
76.38611961643104
 20
48.70170027630817
 30
0.0
 11
77.18691961643102
 21
48.70170027630817
 31
0.0
  0
LINE
  5
210E
330
205B
100
AcDbEntity
  8
0
 62
     7
100
AcDbLine
 10
77.18691961643102
 20
48.70170027630817
 30
0.0
 11
77.18691961643102
 21
61.50230027630818
 31
0.0
  0
LINE
  5
210F
330
205B
100
AcDbEntity
  8
0
 62
     7
100
AcDbLine
 10
77.18691961643102
 20
61.50230027630818
 30
0.0
 11
76.38611961643104
 21
61.50230027630818
 31
0.0
  0
LINE
  5
2110
330
205B
100
AcDbEntity
  8
0
 62
     7
100
AcDbLine
 10
76.38611961643104
 20
61.50230027630818
 30
0.0
 11
76.38611961643104
 21
62.10170027630818
 31
0.0
  0
LINE
  5
2111
330
205B
100
AcDbEntity
  8
0
 62
     7
100
AcDbLine
 10
76.38611961643104
 20
62.10170027630818
 30
0.0
 11
62.38681961643104
 21
62.10170027630818
 31
0.0
  0
LINE
  5
2112
330
205B
100
AcDbEntity
  8
0
 62
     7
100
AcDbLine
 10
81.43681961643101
 20
62.10170027630818
 30
0.0
 11
81.43681961643101
 21
61.50230027630818
 31
0.0
  0
LINE
  5
2113
330
205B
100
AcDbEntity
  8
0
 62
     7
100
AcDbLine
 10
81.43681961643101
 20
61.50230027630818
 30
0.0
 11
80.63601961643101
 21
61.50230027630818
 31
0.0
  0
LINE
  5
2114
330
205B
100
AcDbEntity
  8
0
 62
     7
100
AcDbLine
 10
80.63601961643101
 20
61.50230027630818
 30
0.0
 11
80.63601961643101
 21
48.70170027630817
 31
0.0
  0
LINE
  5
2115
330
205B
100
AcDbEntity
  8
0
 62
     7
100
AcDbLine
 10
80.63601961643101
 20
48.70170027630817
 30
0.0
 11
81.43681961643101
 21
48.70170027630817
 31
0.0
  0
LINE
  5
2116
330
205B
100
AcDbEntity
  8
0
 62
     7
100
AcDbLine
 10
81.43681961643101
 20
48.70170027630817
 30
0.0
 11
81.43681961643101
 21
48.10200027630816
 31
0.0
  0
LINE
  5
2117
330
205B
100
AcDbEntity
  8
0
 62
     7
100
AcDbLine
 10
81.43681961643101
 20
48.10200027630816
 30
0.0
 11
95.43611961643103
 21
48.10200027630816
 31
0.0
  0
LINE
  5
2118
330
205B
100
AcDbEntity
  8
0
 62
     7
100
AcDbLine
 10
95.43611961643103
 20
48.10200027630816
 30
0.0
 11
95.43611961643103
 21
48.70170027630817
 31
0.0
  0
LINE
  5
2119
330
205B
100
AcDbEntity
  8
0
 62
     7
100
AcDbLine
 10
95.43611961643103
 20
48.70170027630817
 30
0.0
 11
96.23691961643103
 21
48.70170027630817
 31
0.0
  0
LINE
  5
211A
330
205B
100
AcDbEntity
  8
0
 62
     7
100
AcDbLine
 10
96.23691961643103
 20
48.70170027630817
 30
0.0
 11
96.23691961643103
 21
61.50230027630818
 31
0.0
  0
LINE
  5
211B
330
205B
100
AcDbEntity
  8
0
 62
     7
100
AcDbLine
 10
96.23691961643103
 20
61.50230027630818
 30
0.0
 11
95.43611961643103
 21
61.50230027630818
 31
0.0
  0
LINE
  5
211C
330
205B
100
AcDbEntity
  8
0
 62
     7
100
AcDbLine
 10
95.43611961643103
 20
61.50230027630818
 30
0.0
 11
95.43611961643103
 21
62.10170027630818
 31
0.0
  0
LINE
  5
211D
330
205B
100
AcDbEntity
  8
0
 62
     7
100
AcDbLine
 10
95.43611961643103
 20
62.10170027630818
 30
0.0
 11
81.43681961643101
 21
62.10170027630818
 31
0.0
  0
LINE
  5
211E
330
205B
100
AcDbEntity
  8
0
 62
     7
100
AcDbLine
 10
100.486819616431
 20
62.10170027630818
 30
0.0
 11
100.486819616431
 21
61.50230027630818
 31
0.0
  0
LINE
  5
211F
330
205B
100
AcDbEntity
  8
0
 62
     7
100
AcDbLine
 10
100.486819616431
 20
61.50230027630818
 30
0.0
 11
99.68601961643102
 21
61.50230027630818
 31
0.0
  0
LINE
  5
2120
330
205B
100
AcDbEntity
  8
0
 62
     7
100
AcDbLine
 10
99.68601961643102
 20
61.50230027630818
 30
0.0
 11
99.68601961643102
 21
48.70170027630817
 31
0.0
  0
LINE
  5
2121
330
205B
100
AcDbEntity
  8
0
 62
     7
100
AcDbLine
 10
99.68601961643102
 20
48.70170027630817
 30
0.0
 11
100.486819616431
 21
48.70170027630817
 31
0.0
  0
LINE
  5
2122
330
205B
100
AcDbEntity
  8
0
 62
     7
100
AcDbLine
 10
100.486819616431
 20
48.70170027630817
 30
0.0
 11
100.486819616431
 21
48.10200027630816
 31
0.0
  0
LINE
  5
2123
330
205B
100
AcDbEntity
  8
0
 62
     7
100
AcDbLine
 10
100.486819616431
 20
48.10200027630816
 30
0.0
 11
114.486619616431
 21
48.10200027630816
 31
0.0
  0
LINE
  5
2124
330
205B
100
AcDbEntity
  8
0
 62
     7
100
AcDbLine
 10
114.486619616431
 20
48.10200027630816
 30
0.0
 11
114.486619616431
 21
48.70170027630817
 31
0.0
  0
LINE
  5
2125
330
205B
100
AcDbEntity
  8
0
 62
     7
100
AcDbLine
 10
114.486619616431
 20
48.70170027630817
 30
0.0
 11
115.2866196164311
 21
48.70170027630817
 31
0.0
  0
LINE
  5
2126
330
205B
100
AcDbEntity
  8
0
 62
     7
100
AcDbLine
 10
115.2866196164311
 20
48.70170027630817
 30
0.0
 11
115.2866196164311
 21
61.50230027630818
 31
0.0
  0
LINE
  5
2127
330
205B
100
AcDbEntity
  8
0
 62
     7
100
AcDbLine
 10
115.2866196164311
 20
61.50230027630818
 30
0.0
 11
114.486619616431
 21
61.50230027630818
 31
0.0
  0
LINE
  5
2128
330
205B
100
AcDbEntity
  8
0
 62
     7
100
AcDbLine
 10
114.486619616431
 20
61.50230027630818
 30
0.0
 11
114.486619616431
 21
62.10170027630818
 31
0.0
  0
LINE
  5
2129
330
205B
100
AcDbEntity
  8
0
 62
     7
100
AcDbLine
 10
114.486619616431
 20
62.10170027630818
 30
0.0
 11
100.486819616431
 21
62.10170027630818
 31
0.0
  0
LINE
  5
212A
330
205B
100
AcDbEntity
  8
0
 62
     7
100
AcDbLine
 10
119.5366196164311
 20
62.10170027630818
 30
0.0
 11
119.5366196164311
 21
61.50230027630818
 31
0.0
  0
LINE
  5
212B
330
205B
100
AcDbEntity
  8
0
 62
     7
100
AcDbLine
 10
119.5366196164311
 20
61.50230027630818
 30
0.0
 11
118.735619616431
 21
61.50230027630818
 31
0.0
  0
LINE
  5
212C
330
205B
100
AcDbEntity
  8
0
 62
     7
100
AcDbLine
 10
118.735619616431
 20
61.50230027630818
 30
0.0
 11
118.735619616431
 21
48.70170027630817
 31
0.0
  0
LINE
  5
212D
330
205B
100
AcDbEntity
  8
0
 62
     7
100
AcDbLine
 10
118.735619616431
 20
48.70170027630817
 30
0.0
 11
119.5366196164311
 21
48.70170027630817
 31
0.0
  0
LINE
  5
212E
330
205B
100
AcDbEntity
  8
0
 62
     7
100
AcDbLine
 10
119.5366196164311
 20
48.70170027630817
 30
0.0
 11
119.5366196164311
 21
48.10200027630816
 31
0.0
  0
LINE
  5
212F
330
205B
100
AcDbEntity
  8
0
 62
     7
100
AcDbLine
 10
119.5366196164311
 20
48.10200027630816
 30
0.0
 11
133.536619616431
 21
48.10200027630816
 31
0.0
  0
LINE
  5
2130
330
205B
100
AcDbEntity
  8
0
 62
     7
100
AcDbLine
 10
133.536619616431
 20
48.10200027630816
 30
0.0
 11
133.536619616431
 21
48.70170027630817
 31
0.0
  0
LINE
  5
2131
330
205B
100
AcDbEntity
  8
0
 62
     7
100
AcDbLine
 10
133.536619616431
 20
48.70170027630817
 30
0.0
 11
134.336619616431
 21
48.70170027630817
 31
0.0
  0
LINE
  5
2132
330
205B
100
AcDbEntity
  8
0
 62
     7
100
AcDbLine
 10
134.336619616431
 20
48.70170027630817
 30
0.0
 11
134.336619616431
 21
61.50230027630818
 31
0.0
  0
LINE
  5
2133
330
205B
100
AcDbEntity
  8
0
 62
     7
100
AcDbLine
 10
134.336619616431
 20
61.50230027630818
 30
0.0
 11
133.536619616431
 21
61.50230027630818
 31
0.0
  0
LINE
  5
2134
330
205B
100
AcDbEntity
  8
0
 62
     7
100
AcDbLine
 10
133.536619616431
 20
61.50230027630818
 30
0.0
 11
133.536619616431
 21
62.10170027630818
 31
0.0
  0
LINE
  5
2135
330
205B
100
AcDbEntity
  8
0
 62
     7
100
AcDbLine
 10
133.536619616431
 20
62.10170027630818
 30
0.0
 11
119.5366196164311
 21
62.10170027630818
 31
0.0
  0
LINE
  5
2136
330
205B
100
AcDbEntity
  8
0
 62
     7
100
AcDbLine
 10
14.76177961643102
 20
81.15200027630818
 30
0.0
 11
14.76177961643102
 21
80.55200027630817
 31
0.0
  0
LINE
  5
2137
330
205B
100
AcDbEntity
  8
0
 62
     7
100
AcDbLine
 10
14.76177961643102
 20
80.55200027630817
 30
0.0
 11
13.96114961643101
 21
80.55200027630817
 31
0.0
  0
LINE
  5
2138
330
205B
100
AcDbEntity
  8
0
 62
     7
100
AcDbLine
 10
13.96114961643101
 20
80.55200027630817
 30
0.0
 11
13.96114961643101
 21
67.75170027630815
 31
0.0
  0
LINE
  5
2139
330
205B
100
AcDbEntity
  8
0
 62
     7
100
AcDbLine
 10
13.96114961643101
 20
67.75170027630815
 30
0.0
 11
14.76177961643102
 21
67.75170027630815
 31
0.0
  0
LINE
  5
213A
330
205B
100
AcDbEntity
  8
0
 62
     7
100
AcDbLine
 10
14.76177961643102
 20
67.75170027630815
 30
0.0
 11
14.76177961643102
 21
67.15200027630817
 31
0.0
  0
LINE
  5
213B
330
205B
100
AcDbEntity
  8
0
 62
     7
100
AcDbLine
 10
14.76177961643102
 20
67.15200027630817
 30
0.0
 11
28.76131961643102
 21
67.15200027630817
 31
0.0
  0
LINE
  5
213C
330
205B
100
AcDbEntity
  8
0
 62
     7
100
AcDbLine
 10
28.76131961643102
 20
67.15200027630817
 30
0.0
 11
28.76131961643102
 21
67.75170027630815
 31
0.0
  0
LINE
  5
213D
330
205B
100
AcDbEntity
  8
0
 62
     7
100
AcDbLine
 10
28.76131961643102
 20
67.75170027630815
 30
0.0
 11
29.56191961643103
 21
67.75170027630815
 31
0.0
  0
LINE
  5
213E
330
205B
100
AcDbEntity
  8
0
 62
     7
100
AcDbLine
 10
29.56191961643103
 20
67.75170027630815
 30
0.0
 11
29.56191961643103
 21
80.55200027630817
 31
0.0
  0
LINE
  5
213F
330
205B
100
AcDbEntity
  8
0
 62
     7
100
AcDbLine
 10
29.56191961643103
 20
80.55200027630817
 30
0.0
 11
28.76131961643102
 21
80.55200027630817
 31
0.0
  0
LINE
  5
2140
330
205B
100
AcDbEntity
  8
0
 62
     7
100
AcDbLine
 10
28.76131961643102
 20
80.55200027630817
 30
0.0
 11
28.76131961643102
 21
81.15200027630818
 31
0.0
  0
LINE
  5
2141
330
205B
100
AcDbEntity
  8
0
 62
     7
100
AcDbLine
 10
28.76131961643102
 20
81.15200027630818
 30
0.0
 11
14.76177961643102
 21
81.15200027630818
 31
0.0
  0
LINE
  5
2142
330
205B
100
AcDbEntity
  8
0
 62
     7
100
AcDbLine
 10
38.57431961643104
 20
81.15200027630818
 30
0.0
 11
38.57431961643104
 21
80.55200027630817
 31
0.0
  0
LINE
  5
2143
330
205B
100
AcDbEntity
  8
0
 62
     7
100
AcDbLine
 10
38.57431961643104
 20
80.55200027630817
 30
0.0
 11
37.77501961643102
 21
80.55200027630817
 31
0.0
  0
LINE
  5
2144
330
205B
100
AcDbEntity
  8
0
 62
     7
100
AcDbLine
 10
37.77501961643102
 20
80.55200027630817
 30
0.0
 11
37.77501961643102
 21
67.75170027630815
 31
0.0
  0
LINE
  5
2145
330
205B
100
AcDbEntity
  8
0
 62
     7
100
AcDbLine
 10
37.77501961643102
 20
67.75170027630815
 30
0.0
 11
38.57431961643104
 21
67.75170027630815
 31
0.0
  0
LINE
  5
2146
330
205B
100
AcDbEntity
  8
0
 62
     7
100
AcDbLine
 10
38.57431961643104
 20
67.75170027630815
 30
0.0
 11
38.57431961643104
 21
67.15200027630817
 31
0.0
  0
LINE
  5
2147
330
205B
100
AcDbEntity
  8
0
 62
     7
100
AcDbLine
 10
38.57431961643104
 20
67.15200027630817
 30
0.0
 11
52.57361961643102
 21
67.15200027630817
 31
0.0
  0
LINE
  5
2148
330
205B
100
AcDbEntity
  8
0
 62
     7
100
AcDbLine
 10
52.57361961643102
 20
67.15200027630817
 30
0.0
 11
52.57361961643102
 21
67.75170027630815
 31
0.0
  0
LINE
  5
2149
330
205B
100
AcDbEntity
  8
0
 62
     7
100
AcDbLine
 10
52.57361961643102
 20
67.75170027630815
 30
0.0
 11
53.37441961643103
 21
67.75170027630815
 31
0.0
  0
LINE
  5
214A
330
205B
100
AcDbEntity
  8
0
 62
     7
100
AcDbLine
 10
53.37441961643103
 20
67.75170027630815
 30
0.0
 11
53.37441961643103
 21
80.55200027630817
 31
0.0
  0
LINE
  5
214B
330
205B
100
AcDbEntity
  8
0
 62
     7
100
AcDbLine
 10
53.37441961643103
 20
80.55200027630817
 30
0.0
 11
52.57361961643102
 21
80.55200027630817
 31
0.0
  0
LINE
  5
214C
330
205B
100
AcDbEntity
  8
0
 62
     7
100
AcDbLine
 10
52.57361961643102
 20
80.55200027630817
 30
0.0
 11
52.57361961643102
 21
81.15200027630818
 31
0.0
  0
LINE
  5
214D
330
205B
100
AcDbEntity
  8
0
 62
     7
100
AcDbLine
 10
52.57361961643102
 20
81.15200027630818
 30
0.0
 11
38.57431961643104
 21
81.15200027630818
 31
0.0
  0
LINE
  5
214E
330
205B
100
AcDbEntity
  8
0
 62
     7
100
AcDbLine
 10
57.62431961643102
 20
81.15200027630818
 30
0.0
 11
57.62431961643102
 21
80.55200027630817
 31
0.0
  0
LINE
  5
214F
330
205B
100
AcDbEntity
  8
0
 62
     7
100
AcDbLine
 10
57.62431961643102
 20
80.55200027630817
 30
0.0
 11
56.82491961643103
 21
80.55200027630817
 31
0.0
  0
LINE
  5
2150
330
205B
100
AcDbEntity
  8
0
 62
     7
100
AcDbLine
 10
56.82491961643103
 20
80.55200027630817
 30
0.0
 11
56.82491961643103
 21
67.75170027630815
 31
0.0
  0
LINE
  5
2151
330
205B
100
AcDbEntity
  8
0
 62
     7
100
AcDbLine
 10
56.82491961643103
 20
67.75170027630815
 30
0.0
 11
57.62431961643102
 21
67.75170027630815
 31
0.0
  0
LINE
  5
2152
330
205B
100
AcDbEntity
  8
0
 62
     7
100
AcDbLine
 10
57.62431961643102
 20
67.75170027630815
 30
0.0
 11
57.62431961643102
 21
67.15200027630817
 31
0.0
  0
LINE
  5
2153
330
205B
100
AcDbEntity
  8
0
 62
     7
100
AcDbLine
 10
57.62431961643102
 20
67.15200027630817
 30
0.0
 11
71.62361961643103
 21
67.15200027630817
 31
0.0
  0
LINE
  5
2154
330
205B
100
AcDbEntity
  8
0
 62
     7
100
AcDbLine
 10
71.62361961643103
 20
67.15200027630817
 30
0.0
 11
71.62361961643103
 21
67.75170027630815
 31
0.0
  0
LINE
  5
2155
330
205B
100
AcDbEntity
  8
0
 62
     7
100
AcDbLine
 10
71.62361961643103
 20
67.75170027630815
 30
0.0
 11
72.42441961643104
 21
67.75170027630815
 31
0.0
  0
LINE
  5
2156
330
205B
100
AcDbEntity
  8
0
 62
     7
100
AcDbLine
 10
72.42441961643104
 20
67.75170027630815
 30
0.0
 11
72.42441961643104
 21
80.55200027630817
 31
0.0
  0
LINE
  5
2157
330
205B
100
AcDbEntity
  8
0
 62
     7
100
AcDbLine
 10
72.42441961643104
 20
80.55200027630817
 30
0.0
 11
71.62361961643103
 21
80.55200027630817
 31
0.0
  0
LINE
  5
2158
330
205B
100
AcDbEntity
  8
0
 62
     7
100
AcDbLine
 10
71.62361961643103
 20
80.55200027630817
 30
0.0
 11
71.62361961643103
 21
81.15200027630818
 31
0.0
  0
LINE
  5
2159
330
205B
100
AcDbEntity
  8
0
 62
     7
100
AcDbLine
 10
71.62361961643103
 20
81.15200027630818
 30
0.0
 11
57.62431961643102
 21
81.15200027630818
 31
0.0
  0
LINE
  5
215A
330
205B
100
AcDbEntity
  8
0
 62
     7
100
AcDbLine
 10
76.67431961643103
 20
81.15200027630818
 30
0.0
 11
76.67431961643103
 21
80.55200027630817
 31
0.0
  0
LINE
  5
215B
330
205B
100
AcDbEntity
  8
0
 62
     7
100
AcDbLine
 10
76.67431961643103
 20
80.55200027630817
 30
0.0
 11
75.87491961643102
 21
80.55200027630817
 31
0.0
  0
LINE
  5
215C
330
205B
100
AcDbEntity
  8
0
 62
     7
100
AcDbLine
 10
75.87491961643102
 20
80.55200027630817
 30
0.0
 11
75.87491961643102
 21
67.75170027630815
 31
0.0
  0
LINE
  5
215D
330
205B
100
AcDbEntity
  8
0
 62
     7
100
AcDbLine
 10
75.87491961643102
 20
67.75170027630815
 30
0.0
 11
76.67431961643103
 21
67.75170027630815
 31
0.0
  0
LINE
  5
215E
330
205B
100
AcDbEntity
  8
0
 62
     7
100
AcDbLine
 10
76.67431961643103
 20
67.75170027630815
 30
0.0
 11
76.67431961643103
 21
67.15200027630817
 31
0.0
  0
LINE
  5
215F
330
205B
100
AcDbEntity
  8
0
 62
     7
100
AcDbLine
 10
76.67431961643103
 20
67.15200027630817
 30
0.0
 11
90.67361961643101
 21
67.15200027630817
 31
0.0
  0
LINE
  5
2160
330
205B
100
AcDbEntity
  8
0
 62
     7
100
AcDbLine
 10
90.67361961643101
 20
67.15200027630817
 30
0.0
 11
90.67361961643101
 21
67.75170027630815
 31
0.0
  0
LINE
  5
2161
330
205B
100
AcDbEntity
  8
0
 62
     7
100
AcDbLine
 10
90.67361961643101
 20
67.75170027630815
 30
0.0
 11
91.47441961643105
 21
67.75170027630815
 31
0.0
  0
LINE
  5
2162
330
205B
100
AcDbEntity
  8
0
 62
     7
100
AcDbLine
 10
91.47441961643105
 20
67.75170027630815
 30
0.0
 11
91.47441961643105
 21
80.55200027630817
 31
0.0
  0
LINE
  5
2163
330
205B
100
AcDbEntity
  8
0
 62
     7
100
AcDbLine
 10
91.47441961643105
 20
80.55200027630817
 30
0.0
 11
90.67361961643101
 21
80.55200027630817
 31
0.0
  0
LINE
  5
2164
330
205B
100
AcDbEntity
  8
0
 62
     7
100
AcDbLine
 10
90.67361961643101
 20
80.55200027630817
 30
0.0
 11
90.67361961643101
 21
81.15200027630818
 31
0.0
  0
LINE
  5
2165
330
205B
100
AcDbEntity
  8
0
 62
     7
100
AcDbLine
 10
90.67361961643101
 20
81.15200027630818
 30
0.0
 11
76.67431961643103
 21
81.15200027630818
 31
0.0
  0
LINE
  5
2166
330
205B
100
AcDbEntity
  8
0
 62
     7
100
AcDbLine
 10
95.72431961643102
 20
81.15200027630818
 30
0.0
 11
95.72431961643102
 21
80.55200027630817
 31
0.0
  0
LINE
  5
2167
330
205B
100
AcDbEntity
  8
0
 62
     7
100
AcDbLine
 10
95.72431961643102
 20
80.55200027630817
 30
0.0
 11
94.92491961643102
 21
80.55200027630817
 31
0.0
  0
LINE
  5
2168
330
205B
100
AcDbEntity
  8
0
 62
     7
100
AcDbLine
 10
94.92491961643102
 20
80.55200027630817
 30
0.0
 11
94.92491961643102
 21
67.75170027630815
 31
0.0
  0
LINE
  5
2169
330
205B
100
AcDbEntity
  8
0
 62
     7
100
AcDbLine
 10
94.92491961643102
 20
67.75170027630815
 30
0.0
 11
95.72431961643102
 21
67.75170027630815
 31
0.0
  0
LINE
  5
216A
330
205B
100
AcDbEntity
  8
0
 62
     7
100
AcDbLine
 10
95.72431961643102
 20
67.75170027630815
 30
0.0
 11
95.72431961643102
 21
67.15200027630817
 31
0.0
  0
LINE
  5
216B
330
205B
100
AcDbEntity
  8
0
 62
     7
100
AcDbLine
 10
95.72431961643102
 20
67.15200027630817
 30
0.0
 11
109.723619616431
 21
67.15200027630817
 31
0.0
  0
LINE
  5
216C
330
205B
100
AcDbEntity
  8
0
 62
     7
100
AcDbLine
 10
109.723619616431
 20
67.15200027630817
 30
0.0
 11
109.723619616431
 21
67.75170027630815
 31
0.0
  0
LINE
  5
216D
330
205B
100
AcDbEntity
  8
0
 62
     7
100
AcDbLine
 10
109.723619616431
 20
67.75170027630815
 30
0.0
 11
110.524619616431
 21
67.75170027630815
 31
0.0
  0
LINE
  5
216E
330
205B
100
AcDbEntity
  8
0
 62
     7
100
AcDbLine
 10
110.524619616431
 20
67.75170027630815
 30
0.0
 11
110.524619616431
 21
80.55200027630817
 31
0.0
  0
LINE
  5
216F
330
205B
100
AcDbEntity
  8
0
 62
     7
100
AcDbLine
 10
110.524619616431
 20
80.55200027630817
 30
0.0
 11
109.723619616431
 21
80.55200027630817
 31
0.0
  0
LINE
  5
2170
330
205B
100
AcDbEntity
  8
0
 62
     7
100
AcDbLine
 10
109.723619616431
 20
80.55200027630817
 30
0.0
 11
109.723619616431
 21
81.15200027630818
 31
0.0
  0
LINE
  5
2171
330
205B
100
AcDbEntity
  8
0
 62
     7
100
AcDbLine
 10
109.723619616431
 20
81.15200027630818
 30
0.0
 11
95.72431961643102
 21
81.15200027630818
 31
0.0
  0
LINE
  5
2172
330
205B
100
AcDbEntity
  8
0
 62
     7
100
AcDbLine
 10
114.774619616431
 20
81.15200027630818
 30
0.0
 11
114.774619616431
 21
80.55200027630817
 31
0.0
  0
LINE
  5
2173
330
205B
100
AcDbEntity
  8
0
 62
     7
100
AcDbLine
 10
114.774619616431
 20
80.55200027630817
 30
0.0
 11
113.9746196164311
 21
80.55200027630817
 31
0.0
  0
LINE
  5
2174
330
205B
100
AcDbEntity
  8
0
 62
     7
100
AcDbLine
 10
113.9746196164311
 20
80.55200027630817
 30
0.0
 11
113.9746196164311
 21
67.75170027630815
 31
0.0
  0
LINE
  5
2175
330
205B
100
AcDbEntity
  8
0
 62
     7
100
AcDbLine
 10
113.9746196164311
 20
67.75170027630815
 30
0.0
 11
114.774619616431
 21
67.75170027630815
 31
0.0
  0
LINE
  5
2176
330
205B
100
AcDbEntity
  8
0
 62
     7
100
AcDbLine
 10
114.774619616431
 20
67.75170027630815
 30
0.0
 11
114.774619616431
 21
67.15200027630817
 31
0.0
  0
LINE
  5
2177
330
205B
100
AcDbEntity
  8
0
 62
     7
100
AcDbLine
 10
114.774619616431
 20
67.15200027630817
 30
0.0
 11
128.773619616431
 21
67.15200027630817
 31
0.0
  0
LINE
  5
2178
330
205B
100
AcDbEntity
  8
0
 62
     7
100
AcDbLine
 10
128.773619616431
 20
67.15200027630817
 30
0.0
 11
128.773619616431
 21
67.75170027630815
 31
0.0
  0
LINE
  5
2179
330
205B
100
AcDbEntity
  8
0
 62
     7
100
AcDbLine
 10
128.773619616431
 20
67.75170027630815
 30
0.0
 11
129.574619616431
 21
67.75170027630815
 31
0.0
  0
LINE
  5
217A
330
205B
100
AcDbEntity
  8
0
 62
     7
100
AcDbLine
 10
129.574619616431
 20
67.75170027630815
 30
0.0
 11
129.574619616431
 21
80.55200027630817
 31
0.0
  0
LINE
  5
217B
330
205B
100
AcDbEntity
  8
0
 62
     7
100
AcDbLine
 10
129.574619616431
 20
80.55200027630817
 30
0.0
 11
128.773619616431
 21
80.55200027630817
 31
0.0
  0
LINE
  5
217C
330
205B
100
AcDbEntity
  8
0
 62
     7
100
AcDbLine
 10
128.773619616431
 20
80.55200027630817
 30
0.0
 11
128.773619616431
 21
81.15200027630818
 31
0.0
  0
LINE
  5
217D
330
205B
100
AcDbEntity
  8
0
 62
     7
100
AcDbLine
 10
128.773619616431
 20
81.15200027630818
 30
0.0
 11
114.774619616431
 21
81.15200027630818
 31
0.0
  0
LINE
  5
217E
330
205B
100
AcDbEntity
  8
0
 62
     7
100
AcDbLine
 10
9.999269616431035
 20
100.2020002763082
 30
0.0
 11
9.999269616431035
 21
99.60200027630817
 31
0.0
  0
LINE
  5
217F
330
205B
100
AcDbEntity
  8
0
 62
     7
100
AcDbLine
 10
9.999269616431035
 20
99.60200027630817
 30
0.0
 11
9.200009616431032
 21
99.60200027630817
 31
0.0
  0
LINE
  5
2180
330
205B
100
AcDbEntity
  8
0
 62
     7
100
AcDbLine
 10
9.200009616431032
 20
99.60200027630817
 30
0.0
 11
9.200009616431032
 21
86.80200027630817
 31
0.0
  0
LINE
  5
2181
330
205B
100
AcDbEntity
  8
0
 62
     7
100
AcDbLine
 10
9.200009616431032
 20
86.80200027630817
 30
0.0
 11
9.999269616431035
 21
86.80200027630817
 31
0.0
  0
LINE
  5
2182
330
205B
100
AcDbEntity
  8
0
 62
     7
100
AcDbLine
 10
9.999269616431035
 20
86.80200027630817
 30
0.0
 11
9.999269616431035
 21
86.20200027630819
 31
0.0
  0
LINE
  5
2183
330
205B
100
AcDbEntity
  8
0
 62
     7
100
AcDbLine
 10
9.999269616431035
 20
86.20200027630819
 30
0.0
 11
23.99881961643103
 21
86.20200027630819
 31
0.0
  0
LINE
  5
2184
330
205B
100
AcDbEntity
  8
0
 62
     7
100
AcDbLine
 10
23.99881961643103
 20
86.20200027630819
 30
0.0
 11
23.99881961643103
 21
86.80200027630817
 31
0.0
  0
LINE
  5
2185
330
205B
100
AcDbEntity
  8
0
 62
     7
100
AcDbLine
 10
23.99881961643103
 20
86.80200027630817
 30
0.0
 11
24.79941961643104
 21
86.80200027630817
 31
0.0
  0
LINE
  5
2186
330
205B
100
AcDbEntity
  8
0
 62
     7
100
AcDbLine
 10
24.79941961643104
 20
86.80200027630817
 30
0.0
 11
24.79941961643104
 21
99.60200027630817
 31
0.0
  0
LINE
  5
2187
330
205B
100
AcDbEntity
  8
0
 62
     7
100
AcDbLine
 10
24.79941961643104
 20
99.60200027630817
 30
0.0
 11
23.99881961643103
 21
99.60200027630817
 31
0.0
  0
LINE
  5
2188
330
205B
100
AcDbEntity
  8
0
 62
     7
100
AcDbLine
 10
23.99881961643103
 20
99.60200027630817
 30
0.0
 11
23.99881961643103
 21
100.2020002763082
 31
0.0
  0
LINE
  5
2189
330
205B
100
AcDbEntity
  8
0
 62
     7
100
AcDbLine
 10
23.99881961643103
 20
100.2020002763082
 30
0.0
 11
9.999269616431035
 21
100.2020002763082
 31
0.0
  0
LINE
  5
218A
330
205B
100
AcDbEntity
  8
0
 62
     7
100
AcDbLine
 10
29.04931961643104
 20
100.2020002763082
 30
0.0
 11
29.04931961643104
 21
99.60200027630817
 31
0.0
  0
LINE
  5
218B
330
205B
100
AcDbEntity
  8
0
 62
     7
100
AcDbLine
 10
29.04931961643104
 20
99.60200027630817
 30
0.0
 11
28.25001961643102
 21
99.60200027630817
 31
0.0
  0
LINE
  5
218C
330
205B
100
AcDbEntity
  8
0
 62
     7
100
AcDbLine
 10
28.25001961643102
 20
99.60200027630817
 30
0.0
 11
28.25001961643102
 21
86.80200027630817
 31
0.0
  0
LINE
  5
218D
330
205B
100
AcDbEntity
  8
0
 62
     7
100
AcDbLine
 10
28.25001961643102
 20
86.80200027630817
 30
0.0
 11
29.04931961643104
 21
86.80200027630817
 31
0.0
  0
LINE
  5
218E
330
205B
100
AcDbEntity
  8
0
 62
     7
100
AcDbLine
 10
29.04931961643104
 20
86.80200027630817
 30
0.0
 11
29.04931961643104
 21
86.20200027630819
 31
0.0
  0
LINE
  5
218F
330
205B
100
AcDbEntity
  8
0
 62
     7
100
AcDbLine
 10
29.04931961643104
 20
86.20200027630819
 30
0.0
 11
43.04861961643104
 21
86.20200027630819
 31
0.0
  0
LINE
  5
2190
330
205B
100
AcDbEntity
  8
0
 62
     7
100
AcDbLine
 10
43.04861961643104
 20
86.20200027630819
 30
0.0
 11
43.04861961643104
 21
86.80200027630817
 31
0.0
  0
LINE
  5
2191
330
205B
100
AcDbEntity
  8
0
 62
     7
100
AcDbLine
 10
43.04861961643104
 20
86.80200027630817
 30
0.0
 11
43.84941961643102
 21
86.80200027630817
 31
0.0
  0
LINE
  5
2192
330
205B
100
AcDbEntity
  8
0
 62
     7
100
AcDbLine
 10
43.84941961643102
 20
86.80200027630817
 30
0.0
 11
43.84941961643102
 21
99.60200027630817
 31
0.0
  0
LINE
  5
2193
330
205B
100
AcDbEntity
  8
0
 62
     7
100
AcDbLine
 10
43.84941961643102
 20
99.60200027630817
 30
0.0
 11
43.04861961643104
 21
99.60200027630817
 31
0.0
  0
LINE
  5
2194
330
205B
100
AcDbEntity
  8
0
 62
     7
100
AcDbLine
 10
43.04861961643104
 20
99.60200027630817
 30
0.0
 11
43.04861961643104
 21
100.2020002763082
 31
0.0
  0
LINE
  5
2195
330
205B
100
AcDbEntity
  8
0
 62
     7
100
AcDbLine
 10
43.04861961643104
 20
100.2020002763082
 30
0.0
 11
29.04931961643104
 21
100.2020002763082
 31
0.0
  0
LINE
  5
2196
330
205B
100
AcDbEntity
  8
0
 62
     7
100
AcDbLine
 10
48.09931961643101
 20
100.2020002763082
 30
0.0
 11
48.09931961643101
 21
99.60200027630817
 31
0.0
  0
LINE
  5
2197
330
205B
100
AcDbEntity
  8
0
 62
     7
100
AcDbLine
 10
48.09931961643101
 20
99.60200027630817
 30
0.0
 11
47.29991961643102
 21
99.60200027630817
 31
0.0
  0
LINE
  5
2198
330
205B
100
AcDbEntity
  8
0
 62
     7
100
AcDbLine
 10
47.29991961643102
 20
99.60200027630817
 30
0.0
 11
47.29991961643102
 21
86.80200027630817
 31
0.0
  0
LINE
  5
2199
330
205B
100
AcDbEntity
  8
0
 62
     7
100
AcDbLine
 10
47.29991961643102
 20
86.80200027630817
 30
0.0
 11
48.09931961643101
 21
86.80200027630817
 31
0.0
  0
LINE
  5
219A
330
205B
100
AcDbEntity
  8
0
 62
     7
100
AcDbLine
 10
48.09931961643101
 20
86.80200027630817
 30
0.0
 11
48.09931961643101
 21
86.20200027630819
 31
0.0
  0
LINE
  5
219B
330
205B
100
AcDbEntity
  8
0
 62
     7
100
AcDbLine
 10
48.09931961643101
 20
86.20200027630819
 30
0.0
 11
62.09861961643103
 21
86.20200027630819
 31
0.0
  0
LINE
  5
219C
330
205B
100
AcDbEntity
  8
0
 62
     7
100
AcDbLine
 10
62.09861961643103
 20
86.20200027630819
 30
0.0
 11
62.09861961643103
 21
86.80200027630817
 31
0.0
  0
LINE
  5
219D
330
205B
100
AcDbEntity
  8
0
 62
     7
100
AcDbLine
 10
62.09861961643103
 20
86.80200027630817
 30
0.0
 11
62.89941961643103
 21
86.80200027630817
 31
0.0
  0
LINE
  5
219E
330
205B
100
AcDbEntity
  8
0
 62
     7
100
AcDbLine
 10
62.89941961643103
 20
86.80200027630817
 30
0.0
 11
62.89941961643103
 21
99.60200027630817
 31
0.0
  0
LINE
  5
219F
330
205B
100
AcDbEntity
  8
0
 62
     7
100
AcDbLine
 10
62.89941961643103
 20
99.60200027630817
 30
0.0
 11
62.09861961643103
 21
99.60200027630817
 31
0.0
  0
LINE
  5
21A0
330
205B
100
AcDbEntity
  8
0
 62
     7
100
AcDbLine
 10
62.09861961643103
 20
99.60200027630817
 30
0.0
 11
62.09861961643103
 21
100.2020002763082
 31
0.0
  0
LINE
  5
21A1
330
205B
100
AcDbEntity
  8
0
 62
     7
100
AcDbLine
 10
62.09861961643103
 20
100.2020002763082
 30
0.0
 11
48.09931961643101
 21
100.2020002763082
 31
0.0
  0
LINE
  5
21A2
330
205B
100
AcDbEntity
  8
0
 62
     7
100
AcDbLine
 10
67.14931961643102
 20
100.2020002763082
 30
0.0
 11
67.14931961643102
 21
99.60200027630817
 31
0.0
  0
LINE
  5
21A3
330
205B
100
AcDbEntity
  8
0
 62
     7
100
AcDbLine
 10
67.14931961643102
 20
99.60200027630817
 30
0.0
 11
66.34991961643104
 21
99.60200027630817
 31
0.0
  0
LINE
  5
21A4
330
205B
100
AcDbEntity
  8
0
 62
     7
100
AcDbLine
 10
66.34991961643104
 20
99.60200027630817
 30
0.0
 11
66.34991961643104
 21
86.80200027630817
 31
0.0
  0
LINE
  5
21A5
330
205B
100
AcDbEntity
  8
0
 62
     7
100
AcDbLine
 10
66.34991961643104
 20
86.80200027630817
 30
0.0
 11
67.14931961643102
 21
86.80200027630817
 31
0.0
  0
LINE
  5
21A6
330
205B
100
AcDbEntity
  8
0
 62
     7
100
AcDbLine
 10
67.14931961643102
 20
86.80200027630817
 30
0.0
 11
67.14931961643102
 21
86.20200027630819
 31
0.0
  0
LINE
  5
21A7
330
205B
100
AcDbEntity
  8
0
 62
     7
100
AcDbLine
 10
67.14931961643102
 20
86.20200027630819
 30
0.0
 11
81.14861961643104
 21
86.20200027630819
 31
0.0
  0
LINE
  5
21A8
330
205B
100
AcDbEntity
  8
0
 62
     7
100
AcDbLine
 10
81.14861961643104
 20
86.20200027630819
 30
0.0
 11
81.14861961643104
 21
86.80200027630817
 31
0.0
  0
LINE
  5
21A9
330
205B
100
AcDbEntity
  8
0
 62
     7
100
AcDbLine
 10
81.14861961643104
 20
86.80200027630817
 30
0.0
 11
81.94941961643101
 21
86.80200027630817
 31
0.0
  0
LINE
  5
21AA
330
205B
100
AcDbEntity
  8
0
 62
     7
100
AcDbLine
 10
81.94941961643101
 20
86.80200027630817
 30
0.0
 11
81.94941961643101
 21
99.60200027630817
 31
0.0
  0
LINE
  5
21AB
330
205B
100
AcDbEntity
  8
0
 62
     7
100
AcDbLine
 10
81.94941961643101
 20
99.60200027630817
 30
0.0
 11
81.14861961643104
 21
99.60200027630817
 31
0.0
  0
LINE
  5
21AC
330
205B
100
AcDbEntity
  8
0
 62
     7
100
AcDbLine
 10
81.14861961643104
 20
99.60200027630817
 30
0.0
 11
81.14861961643104
 21
100.2020002763082
 31
0.0
  0
LINE
  5
21AD
330
205B
100
AcDbEntity
  8
0
 62
     7
100
AcDbLine
 10
81.14861961643104
 20
100.2020002763082
 30
0.0
 11
67.14931961643102
 21
100.2020002763082
 31
0.0
  0
LINE
  5
21AE
330
205B
100
AcDbEntity
  8
0
 62
     7
100
AcDbLine
 10
86.19931961643104
 20
100.2020002763082
 30
0.0
 11
86.19931961643104
 21
99.60200027630817
 31
0.0
  0
LINE
  5
21AF
330
205B
100
AcDbEntity
  8
0
 62
     7
100
AcDbLine
 10
86.19931961643104
 20
99.60200027630817
 30
0.0
 11
85.39991961643105
 21
99.60200027630817
 31
0.0
  0
LINE
  5
21B0
330
205B
100
AcDbEntity
  8
0
 62
     7
100
AcDbLine
 10
85.39991961643105
 20
99.60200027630817
 30
0.0
 11
85.39991961643105
 21
86.80200027630817
 31
0.0
  0
LINE
  5
21B1
330
205B
100
AcDbEntity
  8
0
 62
     7
100
AcDbLine
 10
85.39991961643105
 20
86.80200027630817
 30
0.0
 11
86.19931961643104
 21
86.80200027630817
 31
0.0
  0
LINE
  5
21B2
330
205B
100
AcDbEntity
  8
0
 62
     7
100
AcDbLine
 10
86.19931961643104
 20
86.80200027630817
 30
0.0
 11
86.19931961643104
 21
86.20200027630819
 31
0.0
  0
LINE
  5
21B3
330
205B
100
AcDbEntity
  8
0
 62
     7
100
AcDbLine
 10
86.19931961643104
 20
86.20200027630819
 30
0.0
 11
100.198619616431
 21
86.20200027630819
 31
0.0
  0
LINE
  5
21B4
330
205B
100
AcDbEntity
  8
0
 62
     7
100
AcDbLine
 10
100.198619616431
 20
86.20200027630819
 30
0.0
 11
100.198619616431
 21
86.80200027630817
 31
0.0
  0
LINE
  5
21B5
330
205B
100
AcDbEntity
  8
0
 62
     7
100
AcDbLine
 10
100.198619616431
 20
86.80200027630817
 30
0.0
 11
100.998019616431
 21
86.80200027630817
 31
0.0
  0
LINE
  5
21B6
330
205B
100
AcDbEntity
  8
0
 62
     7
100
AcDbLine
 10
100.998019616431
 20
86.80200027630817
 30
0.0
 11
100.998019616431
 21
99.60200027630817
 31
0.0
  0
LINE
  5
21B7
330
205B
100
AcDbEntity
  8
0
 62
     7
100
AcDbLine
 10
100.998019616431
 20
99.60200027630817
 30
0.0
 11
100.198619616431
 21
99.60200027630817
 31
0.0
  0
LINE
  5
21B8
330
205B
100
AcDbEntity
  8
0
 62
     7
100
AcDbLine
 10
100.198619616431
 20
99.60200027630817
 30
0.0
 11
100.198619616431
 21
100.2020002763082
 31
0.0
  0
LINE
  5
21B9
330
205B
100
AcDbEntity
  8
0
 62
     7
100
AcDbLine
 10
100.198619616431
 20
100.2020002763082
 30
0.0
 11
86.19931961643104
 21
100.2020002763082
 31
0.0
  0
LINE
  5
21BA
330
205B
100
AcDbEntity
  8
0
 62
     7
100
AcDbLine
 10
105.247919616431
 20
100.2020002763082
 30
0.0
 11
105.247919616431
 21
99.60200027630817
 31
0.0
  0
LINE
  5
21BB
330
205B
100
AcDbEntity
  8
0
 62
     7
100
AcDbLine
 10
105.247919616431
 20
99.60200027630817
 30
0.0
 11
104.449919616431
 21
99.60200027630817
 31
0.0
  0
LINE
  5
21BC
330
205B
100
AcDbEntity
  8
0
 62
     7
100
AcDbLine
 10
104.449919616431
 20
99.60200027630817
 30
0.0
 11
104.449919616431
 21
86.80200027630817
 31
0.0
  0
LINE
  5
21BD
330
205B
100
AcDbEntity
  8
0
 62
     7
100
AcDbLine
 10
104.449919616431
 20
86.80200027630817
 30
0.0
 11
105.247919616431
 21
86.80200027630817
 31
0.0
  0
LINE
  5
21BE
330
205B
100
AcDbEntity
  8
0
 62
     7
100
AcDbLine
 10
105.247919616431
 20
86.80200027630817
 30
0.0
 11
105.247919616431
 21
86.20200027630819
 31
0.0
  0
LINE
  5
21BF
330
205B
100
AcDbEntity
  8
0
 62
     7
100
AcDbLine
 10
105.247919616431
 20
86.20200027630819
 30
0.0
 11
119.2486196164311
 21
86.20200027630819
 31
0.0
  0
LINE
  5
21C0
330
205B
100
AcDbEntity
  8
0
 62
     7
100
AcDbLine
 10
119.2486196164311
 20
86.20200027630819
 30
0.0
 11
119.2486196164311
 21
86.80200027630817
 31
0.0
  0
LINE
  5
21C1
330
205B
100
AcDbEntity
  8
0
 62
     7
100
AcDbLine
 10
119.2486196164311
 20
86.80200027630817
 30
0.0
 11
120.047619616431
 21
86.80200027630817
 31
0.0
  0
LINE
  5
21C2
330
205B
100
AcDbEntity
  8
0
 62
     7
100
AcDbLine
 10
120.047619616431
 20
86.80200027630817
 30
0.0
 11
120.047619616431
 21
99.60200027630817
 31
0.0
  0
LINE
  5
21C3
330
205B
100
AcDbEntity
  8
0
 62
     7
100
AcDbLine
 10
120.047619616431
 20
99.60200027630817
 30
0.0
 11
119.2486196164311
 21
99.60200027630817
 31
0.0
  0
LINE
  5
21C4
330
205B
100
AcDbEntity
  8
0
 62
     7
100
AcDbLine
 10
119.2486196164311
 20
99.60200027630817
 30
0.0
 11
119.2486196164311
 21
100.2020002763082
 31
0.0
  0
LINE
  5
21C5
330
205B
100
AcDbEntity
  8
0
 62
     7
100
AcDbLine
 10
119.2486196164311
 20
100.2020002763082
 30
0.0
 11
105.247919616431
 21
100.2020002763082
 31
0.0
  0
LINE
  5
21C6
330
205B
100
AcDbEntity
  8
0
 62
     7
100
AcDbLine
 10
124.297619616431
 20
100.2020002763082
 30
0.0
 11
124.297619616431
 21
99.60200027630817
 31
0.0
  0
LINE
  5
21C7
330
205B
100
AcDbEntity
  8
0
 62
     7
100
AcDbLine
 10
124.297619616431
 20
99.60200027630817
 30
0.0
 11
123.4986196164311
 21
99.60200027630817
 31
0.0
  0
LINE
  5
21C8
330
205B
100
AcDbEntity
  8
0
 62
     7
100
AcDbLine
 10
123.4986196164311
 20
99.60200027630817
 30
0.0
 11
123.4986196164311
 21
86.80200027630817
 31
0.0
  0
LINE
  5
21C9
330
205B
100
AcDbEntity
  8
0
 62
     7
100
AcDbLine
 10
123.4986196164311
 20
86.80200027630817
 30
0.0
 11
124.297619616431
 21
86.80200027630817
 31
0.0
  0
LINE
  5
21CA
330
205B
100
AcDbEntity
  8
0
 62
     7
100
AcDbLine
 10
124.297619616431
 20
86.80200027630817
 30
0.0
 11
124.297619616431
 21
86.20200027630819
 31
0.0
  0
LINE
  5
21CB
330
205B
100
AcDbEntity
  8
0
 62
     7
100
AcDbLine
 10
124.297619616431
 20
86.20200027630819
 30
0.0
 11
138.298619616431
 21
86.20200027630819
 31
0.0
  0
LINE
  5
21CC
330
205B
100
AcDbEntity
  8
0
 62
     7
100
AcDbLine
 10
138.298619616431
 20
86.20200027630819
 30
0.0
 11
138.298619616431
 21
86.80200027630817
 31
0.0
  0
LINE
  5
21CD
330
205B
100
AcDbEntity
  8
0
 62
     7
100
AcDbLine
 10
138.298619616431
 20
86.80200027630817
 30
0.0
 11
139.099619616431
 21
86.80200027630817
 31
0.0
  0
LINE
  5
21CE
330
205B
100
AcDbEntity
  8
0
 62
     7
100
AcDbLine
 10
139.099619616431
 20
86.80200027630817
 30
0.0
 11
139.099619616431
 21
99.60200027630817
 31
0.0
  0
LINE
  5
21CF
330
205B
100
AcDbEntity
  8
0
 62
     7
100
AcDbLine
 10
139.099619616431
 20
99.60200027630817
 30
0.0
 11
138.298619616431
 21
99.60200027630817
 31
0.0
  0
LINE
  5
21D0
330
205B
100
AcDbEntity
  8
0
 62
     7
100
AcDbLine
 10
138.298619616431
 20
99.60200027630817
 30
0.0
 11
138.298619616431
 21
100.2020002763082
 31
0.0
  0
LINE
  5
21D1
330
205B
100
AcDbEntity
  8
0
 62
     7
100
AcDbLine
 10
138.298619616431
 20
100.2020002763082
 30
0.0
 11
124.297619616431
 21
100.2020002763082
 31
0.0
  0
LINE
  5
21D2
330
205B
100
AcDbEntity
  8
0
  6
Continuous
 62
     7
100
AcDbLine
 10
140.8268096164302
 20
129.2520002763083
 30
0.0
 11
140.8268096164301
 21
83.67500017729833
 31
0.0
  0
LINE
  5
21D3
330
205B
100
AcDbEntity
  8
0
  6
Continuous
 62
     7
100
AcDbLine
 10
140.8268096164301
 20
83.67500017729833
 30
0.0
 11
131.3013096164301
 21
83.67500017729833
 31
0.0
  0
LINE
  5
21D4
330
205B
100
AcDbEntity
  8
0
  6
Continuous
 62
     7
100
AcDbLine
 10
131.3013096164301
 20
83.67500017729833
 30
0.0
 11
131.3013096164301
 21
64.62550027630823
 31
0.0
  0
LINE
  5
21D5
330
205B
100
AcDbEntity
  8
0
  6
Continuous
 62
     7
100
AcDbLine
 10
131.3013096164301
 20
64.62550027630823
 30
0.0
 11
136.06330961643
 21
64.62550027630823
 31
0.0
  0
LINE
  5
21D6
330
205B
100
AcDbEntity
  8
0
 62
     7
100
AcDbLine
 10
56.82565961643073
 20
10.60170027630818
 30
0.0
 11
57.62635961643074
 21
10.60170027630818
 31
0.0
  0
LINE
  5
21D7
330
205B
100
AcDbEntity
  8
0
 62
     7
100
AcDbLine
 10
57.62635961643074
 20
10.60170027630818
 30
0.0
 11
57.62635961643074
 21
10.00200027630816
 31
0.0
  0
LINE
  5
21D8
330
205B
100
AcDbEntity
  8
0
 62
     7
100
AcDbLine
 10
42.45140961643016
 20
120.0510002763081
 30
0.0
 11
29.65140961643044
 21
120.0510002763081
 31
0.0
  0
LINE
  5
21D9
330
205B
100
AcDbEntity
  8
0
 62
     7
100
AcDbLine
 10
23.40000961643011
 20
120.0520002763082
 30
0.0
 11
10.60000961643038
 21
120.0520002763082
 31
0.0
  0
LINE
  5
21DA
330
205B
100
AcDbEntity
  8
0
 62
     7
100
AcDbLine
 10
81.95160961643011
 20
99.60200027630817
 30
0.0
 11
81.15220961643013
 21
99.60200027630817
 31
0.0
  0
LINE
  5
21DB
330
205B
100
AcDbEntity
  8
0
 62
     7
100
AcDbLine
 10
81.15220961643013
 20
99.60200027630817
 30
0.0
 11
81.15220961643013
 21
100.2000002763081
 31
0.0
  0
LINE
  5
21DC
330
205B
100
AcDbEntity
  8
0
 62
     7
100
AcDbLine
 10
86.20150961643014
 20
100.2000002763081
 30
0.0
 11
86.20150961643014
 21
99.60200027630817
 31
0.0
  0
LINE
  5
21DD
330
205B
100
AcDbEntity
  8
0
 62
     7
100
AcDbLine
 10
86.20150961643014
 20
99.60200027630817
 30
0.0
 11
85.40210961643015
 21
99.60200027630817
 31
0.0
  0
CIRCLE
  5
21DE
330
205B
100
AcDbEntity
  8
0
  6
Continuous
 62
     7
100
AcDbCircle
 10
3.737329616430088
 20
125.5141464763082
 30
0.0
 40
1.5
  0
CIRCLE
  5
21DF
330
205B
100
AcDbEntity
  8
0
  6
Continuous
 62
     7
100
AcDbCircle
 10
132.8638096164301
 20
125.5141464763082
 30
0.0
 40
1.5
  0
CIRCLE
  5
21E0
330
205B
100
AcDbEntity
  8
0
  6
Continuous
 62
     7
100
AcDbCircle
 10
71.65135191643014
 20
125.5141464763082
 30
0.0
 40
1.5
  0
CIRCLE
  5
21E1
330
205B
100
AcDbEntity
  8
0
  6
Continuous
 62
     7
100
AcDbCircle
 10
3.737329616430088
 20
3.737301476308175
 30
0.0
 40
1.5
  0
CIRCLE
  5
21E2
330
205B
100
AcDbEntity
  8
0
  6
Continuous
 62
     7
100
AcDbCircle
 10
71.65135191643014
 20
3.737301476308175
 30
0.0
 40
1.5
  0
CIRCLE
  5
21E3
330
205B
100
AcDbEntity
  8
0
  6
Continuous
 62
     7
100
AcDbCircle
 10
3.737329616430088
 20
64.62570737630819
 30
0.0
 40
1.5
  0
LINE
  5
21E4
330
205B
100
AcDbEntity
  8
0
 62
     7
100
AcDbLine
 10
10.60000961643038
 20
120.0520002763082
 30
0.0
 11
10.60000961643038
 21
119.2520002763082
 31
0.0
  0
LINE
  5
21E5
330
205B
100
AcDbEntity
  8
0
 62
     7
100
AcDbLine
 10
10.60000961643038
 20
119.2520002763082
 30
0.0
 11
10.00000961643047
 21
119.2520002763082
 31
0.0
  0
LINE
  5
21E6
330
205B
100
AcDbEntity
  8
0
 62
     7
100
AcDbLine
 10
10.00000961643047
 20
105.251000276308
 30
0.0
 11
10.60000961643038
 21
105.251000276308
 31
0.0
  0
LINE
  5
21E7
330
205B
100
AcDbEntity
  8
0
 62
     7
100
AcDbLine
 10
10.60000961643038
 20
105.251000276308
 30
0.0
 11
10.60000961643038
 21
104.4500002763081
 31
0.0
  0
LINE
  5
21E8
330
205B
100
AcDbEntity
  8
0
 62
     7
100
AcDbLine
 10
10.60000961643038
 20
104.4500002763081
 30
0.0
 11
23.40000961643011
 21
104.4500002763081
 31
0.0
  0
LINE
  5
21E9
330
205B
100
AcDbEntity
  8
0
 62
     7
100
AcDbLine
 10
23.40000961643011
 20
104.4500002763081
 30
0.0
 11
23.40000961643011
 21
105.251000276308
 31
0.0
  0
LINE
  5
21EA
330
205B
100
AcDbEntity
  8
0
 62
     7
100
AcDbLine
 10
23.40000961643011
 20
105.251000276308
 30
0.0
 11
24.00000961643048
 21
105.251000276308
 31
0.0
  0
LINE
  5
21EB
330
205B
100
AcDbEntity
  8
0
 62
     7
100
AcDbLine
 10
24.00000961643048
 20
119.2520002763082
 30
0.0
 11
23.40000961643011
 21
119.2520002763082
 31
0.0
  0
LINE
  5
21EC
330
205B
100
AcDbEntity
  8
0
 62
     7
100
AcDbLine
 10
23.40000961643011
 20
119.2520002763082
 30
0.0
 11
23.40000961643011
 21
120.0520002763082
 31
0.0
  0
LINE
  5
21ED
330
205B
100
AcDbEntity
  8
0
 62
     7
100
AcDbLine
 10
10.0000096164307
 20
119.2520002763082
 30
0.0
 11
10.0000096164307
 21
118.6520002763081
 31
0.0
  0
LINE
  5
21EE
330
205B
100
AcDbEntity
  8
0
 62
     7
100
AcDbLine
 10
10.0000096164307
 20
118.6520002763081
 30
0.0
 11
9.200009616430975
 21
118.6520002763081
 31
0.0
  0
LINE
  5
21EF
330
205B
100
AcDbEntity
  8
0
 62
     7
100
AcDbLine
 10
9.200009616430975
 20
118.6520002763081
 30
0.0
 11
9.200009616430975
 21
105.8520002763081
 31
0.0
  0
LINE
  5
21F0
330
205B
100
AcDbEntity
  8
0
 62
     7
100
AcDbLine
 10
9.200009616430975
 20
105.8520002763081
 30
0.0
 11
10.0000096164307
 21
105.8520002763081
 31
0.0
  0
LINE
  5
21F1
330
205B
100
AcDbEntity
  8
0
 62
     7
100
AcDbLine
 10
10.0000096164307
 20
105.8520002763081
 30
0.0
 11
10.0000096164307
 21
105.251000276308
 31
0.0
  0
LINE
  5
21F2
330
205B
100
AcDbEntity
  8
0
 62
     7
100
AcDbLine
 10
24.0000096164307
 20
105.251000276308
 30
0.0
 11
24.0000096164307
 21
105.8520002763081
 31
0.0
  0
LINE
  5
21F3
330
205B
100
AcDbEntity
  8
0
 62
     7
100
AcDbLine
 10
24.0000096164307
 20
105.8520002763081
 30
0.0
 11
24.80000961643043
 21
105.8520002763081
 31
0.0
  0
LINE
  5
21F4
330
205B
100
AcDbEntity
  8
0
 62
     7
100
AcDbLine
 10
24.80000961643043
 20
105.8520002763081
 30
0.0
 11
24.80000961643043
 21
118.6520002763081
 31
0.0
  0
LINE
  5
21F5
330
205B
100
AcDbEntity
  8
0
 62
     7
100
AcDbLine
 10
24.80000961643043
 20
118.6520002763081
 30
0.0
 11
24.0000096164307
 21
118.6520002763081
 31
0.0
  0
LINE
  5
21F6
330
205B
100
AcDbEntity
  8
0
 62
     7
100
AcDbLine
 10
24.0000096164307
 20
118.6520002763081
 30
0.0
 11
24.0000096164307
 21
119.2520002763082
 31
0.0
  0
LINE
  5
21F7
330
205B
100
AcDbEntity
  8
0
 62
     7
100
AcDbLine
 10
61.50140961643012
 20
120.0510002763081
 30
0.0
 11
48.70230961643017
 21
120.0510002763081
 31
0.0
  0
LINE
  5
21F8
330
205B
100
AcDbEntity
  8
0
 62
     7
100
AcDbLine
 10
80.55140961643008
 20
120.0510002763081
 30
0.0
 11
67.75090961643013
 21
120.0510002763081
 31
0.0
  0
LINE
  5
21F9
330
205B
100
AcDbEntity
  8
0
 62
     7
100
AcDbLine
 10
99.60140961643014
 20
120.0510002763081
 30
0.0
 11
86.80230961643008
 21
120.0510002763081
 31
0.0
  0
LINE
  5
21FA
330
205B
100
AcDbEntity
  8
0
 62
     7
100
AcDbLine
 10
118.6518096164302
 20
120.0510002763081
 30
0.0
 11
105.8518096164302
 21
120.0510002763081
 31
0.0
  0
LINE
  5
21FB
330
205B
100
AcDbEntity
  8
0
 62
     7
100
AcDbLine
 10
137.7018096164302
 20
120.0520002763082
 30
0.0
 11
124.9008096164302
 21
120.0520002763082
 31
0.0
  0
LINE
  5
21FC
330
205B
100
AcDbEntity
  8
0
 62
     7
100
AcDbLine
 10
29.65140961643044
 20
120.0510002763081
 30
0.0
 11
29.65140961643044
 21
119.2510002763081
 31
0.0
  0
LINE
  5
21FD
330
205B
100
AcDbEntity
  8
0
 62
     7
100
AcDbLine
 10
29.65140961643044
 20
119.2510002763081
 30
0.0
 11
29.05140961643053
 21
119.2510002763081
 31
0.0
  0
LINE
  5
21FE
330
205B
100
AcDbEntity
  8
0
 62
     7
100
AcDbLine
 10
29.05140961643053
 20
105.2500002763079
 30
0.0
 11
29.65140961643044
 21
105.2500002763079
 31
0.0
  0
LINE
  5
21FF
330
205B
100
AcDbEntity
  8
0
 62
     7
100
AcDbLine
 10
29.65140961643044
 20
105.2500002763079
 30
0.0
 11
29.65140961643044
 21
104.449000276308
 31
0.0
  0
LINE
  5
2200
330
205B
100
AcDbEntity
  8
0
 62
     7
100
AcDbLine
 10
29.65140961643044
 20
104.449000276308
 30
0.0
 11
42.45140961643016
 21
104.449000276308
 31
0.0
  0
LINE
  5
2201
330
205B
100
AcDbEntity
  8
0
 62
     7
100
AcDbLine
 10
42.45140961643016
 20
104.449000276308
 30
0.0
 11
42.45140961643016
 21
105.2500002763079
 31
0.0
  0
LINE
  5
2202
330
205B
100
AcDbEntity
  8
0
 62
     7
100
AcDbLine
 10
42.45140961643016
 20
105.2500002763079
 30
0.0
 11
43.05140961643053
 21
105.2500002763079
 31
0.0
  0
LINE
  5
2203
330
205B
100
AcDbEntity
  8
0
 62
     7
100
AcDbLine
 10
43.05140961643053
 20
119.2510002763081
 30
0.0
 11
42.45140961643016
 21
119.2510002763081
 31
0.0
  0
LINE
  5
2204
330
205B
100
AcDbEntity
  8
0
 62
     7
100
AcDbLine
 10
42.45140961643016
 20
119.2510002763081
 30
0.0
 11
42.45140961643016
 21
120.0510002763081
 31
0.0
  0
LINE
  5
2205
330
205B
100
AcDbEntity
  8
0
 62
     7
100
AcDbLine
 10
29.05140961643076
 20
119.2510002763081
 30
0.0
 11
29.05140961643076
 21
118.651000276308
 31
0.0
  0
LINE
  5
2206
330
205B
100
AcDbEntity
  8
0
 62
     7
100
AcDbLine
 10
29.05140961643076
 20
118.651000276308
 30
0.0
 11
28.25140961643104
 21
118.651000276308
 31
0.0
  0
LINE
  5
2207
330
205B
100
AcDbEntity
  8
0
 62
     7
100
AcDbLine
 10
28.25140961643104
 20
118.651000276308
 30
0.0
 11
28.25140961643104
 21
105.851000276308
 31
0.0
  0
LINE
  5
2208
330
205B
100
AcDbEntity
  8
0
 62
     7
100
AcDbLine
 10
28.25140961643104
 20
105.851000276308
 30
0.0
 11
29.05140961643076
 21
105.851000276308
 31
0.0
  0
LINE
  5
2209
330
205B
100
AcDbEntity
  8
0
 62
     7
100
AcDbLine
 10
29.05140961643076
 20
105.851000276308
 30
0.0
 11
29.05140961643076
 21
105.2500002763079
 31
0.0
  0
LINE
  5
220A
330
205B
100
AcDbEntity
  8
0
 62
     7
100
AcDbLine
 10
43.05140961643076
 20
105.2500002763079
 30
0.0
 11
43.05140961643076
 21
105.851000276308
 31
0.0
  0
LINE
  5
220B
330
205B
100
AcDbEntity
  8
0
 62
     7
100
AcDbLine
 10
43.05140961643076
 20
105.851000276308
 30
0.0
 11
43.85140961643048
 21
105.851000276308
 31
0.0
  0
LINE
  5
220C
330
205B
100
AcDbEntity
  8
0
 62
     7
100
AcDbLine
 10
43.85140961643048
 20
105.851000276308
 30
0.0
 11
43.85140961643048
 21
118.651000276308
 31
0.0
  0
LINE
  5
220D
330
205B
100
AcDbEntity
  8
0
 62
     7
100
AcDbLine
 10
43.85140961643048
 20
118.651000276308
 30
0.0
 11
43.05140961643076
 21
118.651000276308
 31
0.0
  0
LINE
  5
220E
330
205B
100
AcDbEntity
  8
0
 62
     7
100
AcDbLine
 10
43.05140961643076
 20
118.651000276308
 30
0.0
 11
43.05140961643076
 21
119.2510002763081
 31
0.0
  0
LINE
  5
220F
330
205B
100
AcDbEntity
  8
0
 62
     7
100
AcDbLine
 10
48.7014096164304
 20
120.0510002763081
 30
0.0
 11
48.7014096164304
 21
119.2510002763081
 31
0.0
  0
LINE
  5
2210
330
205B
100
AcDbEntity
  8
0
 62
     7
100
AcDbLine
 10
48.7014096164304
 20
119.2510002763081
 30
0.0
 11
48.10140961643049
 21
119.2510002763081
 31
0.0
  0
LINE
  5
2211
330
205B
100
AcDbEntity
  8
0
 62
     7
100
AcDbLine
 10
48.10140961643049
 20
105.2500002763079
 30
0.0
 11
48.7014096164304
 21
105.2500002763079
 31
0.0
  0
LINE
  5
2212
330
205B
100
AcDbEntity
  8
0
 62
     7
100
AcDbLine
 10
48.7014096164304
 20
105.2500002763079
 30
0.0
 11
48.7014096164304
 21
104.449000276308
 31
0.0
  0
LINE
  5
2213
330
205B
100
AcDbEntity
  8
0
 62
     7
100
AcDbLine
 10
48.7014096164304
 20
104.449000276308
 30
0.0
 11
61.50140961643012
 21
104.449000276308
 31
0.0
  0
LINE
  5
2214
330
205B
100
AcDbEntity
  8
0
 62
     7
100
AcDbLine
 10
61.50140961643012
 20
104.449000276308
 30
0.0
 11
61.50140961643012
 21
105.2500002763079
 31
0.0
  0
LINE
  5
2215
330
205B
100
AcDbEntity
  8
0
 62
     7
100
AcDbLine
 10
61.50140961643012
 20
105.2500002763079
 30
0.0
 11
62.10140961643048
 21
105.2500002763079
 31
0.0
  0
LINE
  5
2216
330
205B
100
AcDbEntity
  8
0
 62
     7
100
AcDbLine
 10
62.10140961643048
 20
119.2510002763081
 30
0.0
 11
61.50140961643012
 21
119.2510002763081
 31
0.0
  0
LINE
  5
2217
330
205B
100
AcDbEntity
  8
0
 62
     7
100
AcDbLine
 10
61.50140961643012
 20
119.2510002763081
 30
0.0
 11
61.50140961643012
 21
120.0510002763081
 31
0.0
  0
LINE
  5
2218
330
205B
100
AcDbEntity
  8
0
 62
     7
100
AcDbLine
 10
48.10140961643071
 20
119.2510002763081
 30
0.0
 11
48.10140961643071
 21
118.651000276308
 31
0.0
  0
LINE
  5
2219
330
205B
100
AcDbEntity
  8
0
 62
     7
100
AcDbLine
 10
48.10140961643071
 20
118.651000276308
 30
0.0
 11
47.30140961643098
 21
118.651000276308
 31
0.0
  0
LINE
  5
221A
330
205B
100
AcDbEntity
  8
0
 62
     7
100
AcDbLine
 10
47.30140961643098
 20
118.651000276308
 30
0.0
 11
47.30140961643098
 21
105.851000276308
 31
0.0
  0
LINE
  5
221B
330
205B
100
AcDbEntity
  8
0
 62
     7
100
AcDbLine
 10
47.30140961643098
 20
105.851000276308
 30
0.0
 11
48.10140961643071
 21
105.851000276308
 31
0.0
  0
LINE
  5
221C
330
205B
100
AcDbEntity
  8
0
 62
     7
100
AcDbLine
 10
48.10140961643071
 20
105.851000276308
 30
0.0
 11
48.10140961643071
 21
105.2500002763079
 31
0.0
  0
LINE
  5
221D
330
205B
100
AcDbEntity
  8
0
 62
     7
100
AcDbLine
 10
62.10140961643071
 20
105.2500002763079
 30
0.0
 11
62.10140961643071
 21
105.851000276308
 31
0.0
  0
LINE
  5
221E
330
205B
100
AcDbEntity
  8
0
 62
     7
100
AcDbLine
 10
62.10140961643071
 20
105.851000276308
 30
0.0
 11
62.90140961643044
 21
105.851000276308
 31
0.0
  0
LINE
  5
221F
330
205B
100
AcDbEntity
  8
0
 62
     7
100
AcDbLine
 10
62.90140961643044
 20
105.851000276308
 30
0.0
 11
62.90140961643044
 21
118.651000276308
 31
0.0
  0
LINE
  5
2220
330
205B
100
AcDbEntity
  8
0
 62
     7
100
AcDbLine
 10
62.90140961643044
 20
118.651000276308
 30
0.0
 11
62.10140961643071
 21
118.651000276308
 31
0.0
  0
LINE
  5
2221
330
205B
100
AcDbEntity
  8
0
 62
     7
100
AcDbLine
 10
62.10140961643071
 20
118.651000276308
 30
0.0
 11
62.10140961643071
 21
119.2510002763081
 31
0.0
  0
LINE
  5
2222
330
205B
100
AcDbEntity
  8
0
 62
     7
100
AcDbLine
 10
67.75140961643035
 20
120.0510002763081
 30
0.0
 11
67.75140961643035
 21
119.2510002763081
 31
0.0
  0
LINE
  5
2223
330
205B
100
AcDbEntity
  8
0
 62
     7
100
AcDbLine
 10
67.75140961643035
 20
119.2510002763081
 30
0.0
 11
67.15140961643044
 21
119.2510002763081
 31
0.0
  0
LINE
  5
2224
330
205B
100
AcDbEntity
  8
0
 62
     7
100
AcDbLine
 10
67.15140961643044
 20
105.2500002763079
 30
0.0
 11
67.75140961643035
 21
105.2500002763079
 31
0.0
  0
LINE
  5
2225
330
205B
100
AcDbEntity
  8
0
 62
     7
100
AcDbLine
 10
67.75140961643035
 20
105.2500002763079
 30
0.0
 11
67.75140961643035
 21
104.449000276308
 31
0.0
  0
LINE
  5
2226
330
205B
100
AcDbEntity
  8
0
 62
     7
100
AcDbLine
 10
67.75140961643035
 20
104.449000276308
 30
0.0
 11
80.55140961643008
 21
104.449000276308
 31
0.0
  0
LINE
  5
2227
330
205B
100
AcDbEntity
  8
0
 62
     7
100
AcDbLine
 10
80.55140961643008
 20
104.449000276308
 30
0.0
 11
80.55140961643008
 21
105.2500002763079
 31
0.0
  0
LINE
  5
2228
330
205B
100
AcDbEntity
  8
0
 62
     7
100
AcDbLine
 10
80.55140961643008
 20
105.2500002763079
 30
0.0
 11
81.15140961643044
 21
105.2500002763079
 31
0.0
  0
LINE
  5
2229
330
205B
100
AcDbEntity
  8
0
 62
     7
100
AcDbLine
 10
81.15140961643044
 20
119.2510002763081
 30
0.0
 11
80.55140961643008
 21
119.2510002763081
 31
0.0
  0
LINE
  5
222A
330
205B
100
AcDbEntity
  8
0
 62
     7
100
AcDbLine
 10
80.55140961643008
 20
119.2510002763081
 30
0.0
 11
80.55140961643008
 21
120.0510002763081
 31
0.0
  0
LINE
  5
222B
330
205B
100
AcDbEntity
  8
0
 62
     7
100
AcDbLine
 10
67.15140961643067
 20
119.2510002763081
 30
0.0
 11
67.15140961643067
 21
118.651000276308
 31
0.0
  0
LINE
  5
222C
330
205B
100
AcDbEntity
  8
0
 62
     7
100
AcDbLine
 10
67.15140961643067
 20
118.651000276308
 30
0.0
 11
66.35140961643094
 21
118.651000276308
 31
0.0
  0
LINE
  5
222D
330
205B
100
AcDbEntity
  8
0
 62
     7
100
AcDbLine
 10
66.35140961643094
 20
118.651000276308
 30
0.0
 11
66.35140961643094
 21
105.851000276308
 31
0.0
  0
LINE
  5
222E
330
205B
100
AcDbEntity
  8
0
 62
     7
100
AcDbLine
 10
66.35140961643094
 20
105.851000276308
 30
0.0
 11
67.15140961643067
 21
105.851000276308
 31
0.0
  0
LINE
  5
222F
330
205B
100
AcDbEntity
  8
0
 62
     7
100
AcDbLine
 10
67.15140961643067
 20
105.851000276308
 30
0.0
 11
67.15140961643067
 21
105.2500002763079
 31
0.0
  0
LINE
  5
2230
330
205B
100
AcDbEntity
  8
0
 62
     7
100
AcDbLine
 10
81.15140961643067
 20
105.2500002763079
 30
0.0
 11
81.15140961643067
 21
105.851000276308
 31
0.0
  0
LINE
  5
2231
330
205B
100
AcDbEntity
  8
0
 62
     7
100
AcDbLine
 10
81.15140961643067
 20
105.851000276308
 30
0.0
 11
81.95140961643039
 21
105.851000276308
 31
0.0
  0
LINE
  5
2232
330
205B
100
AcDbEntity
  8
0
 62
     7
100
AcDbLine
 10
81.95140961643039
 20
105.851000276308
 30
0.0
 11
81.95140961643039
 21
118.651000276308
 31
0.0
  0
LINE
  5
2233
330
205B
100
AcDbEntity
  8
0
 62
     7
100
AcDbLine
 10
81.95140961643039
 20
118.651000276308
 30
0.0
 11
81.15140961643067
 21
118.651000276308
 31
0.0
  0
LINE
  5
2234
330
205B
100
AcDbEntity
  8
0
 62
     7
100
AcDbLine
 10
81.15140961643067
 20
118.651000276308
 30
0.0
 11
81.15140961643067
 21
119.2510002763081
 31
0.0
  0
LINE
  5
2235
330
205B
100
AcDbEntity
  8
0
 62
     7
100
AcDbLine
 10
86.80140961643042
 20
120.0510002763081
 30
0.0
 11
86.80140961643042
 21
119.2510002763081
 31
0.0
  0
LINE
  5
2236
330
205B
100
AcDbEntity
  8
0
 62
     7
100
AcDbLine
 10
86.80140961643042
 20
119.2510002763081
 30
0.0
 11
86.2014096164305
 21
119.2510002763081
 31
0.0
  0
LINE
  5
2237
330
205B
100
AcDbEntity
  8
0
 62
     7
100
AcDbLine
 10
86.2014096164305
 20
105.2500002763079
 30
0.0
 11
86.80140961643042
 21
105.2500002763079
 31
0.0
  0
LINE
  5
2238
330
205B
100
AcDbEntity
  8
0
 62
     7
100
AcDbLine
 10
86.80140961643042
 20
105.2500002763079
 30
0.0
 11
86.80140961643042
 21
104.449000276308
 31
0.0
  0
LINE
  5
2239
330
205B
100
AcDbEntity
  8
0
 62
     7
100
AcDbLine
 10
86.80140961643042
 20
104.449000276308
 30
0.0
 11
99.60140961643014
 21
104.449000276308
 31
0.0
  0
LINE
  5
223A
330
205B
100
AcDbEntity
  8
0
 62
     7
100
AcDbLine
 10
99.60140961643014
 20
104.449000276308
 30
0.0
 11
99.60140961643014
 21
105.2500002763079
 31
0.0
  0
LINE
  5
223B
330
205B
100
AcDbEntity
  8
0
 62
     7
100
AcDbLine
 10
99.60140961643014
 20
105.2500002763079
 30
0.0
 11
100.2014096164305
 21
105.2500002763079
 31
0.0
  0
LINE
  5
223C
330
205B
100
AcDbEntity
  8
0
 62
     7
100
AcDbLine
 10
100.2014096164305
 20
119.2510002763081
 30
0.0
 11
99.60140961643014
 21
119.2510002763081
 31
0.0
  0
LINE
  5
223D
330
205B
100
AcDbEntity
  8
0
 62
     7
100
AcDbLine
 10
99.60140961643014
 20
119.2510002763081
 30
0.0
 11
99.60140961643014
 21
120.0510002763081
 31
0.0
  0
LINE
  5
223E
330
205B
100
AcDbEntity
  8
0
 62
     7
100
AcDbLine
 10
86.20140961643073
 20
119.2510002763081
 30
0.0
 11
86.20140961643073
 21
118.651000276308
 31
0.0
  0
LINE
  5
223F
330
205B
100
AcDbEntity
  8
0
 62
     7
100
AcDbLine
 10
86.20140961643073
 20
118.651000276308
 30
0.0
 11
85.40140961643102
 21
118.651000276308
 31
0.0
  0
LINE
  5
2240
330
205B
100
AcDbEntity
  8
0
 62
     7
100
AcDbLine
 10
85.40140961643102
 20
118.651000276308
 30
0.0
 11
85.40140961643102
 21
105.851000276308
 31
0.0
  0
LINE
  5
2241
330
205B
100
AcDbEntity
  8
0
 62
     7
100
AcDbLine
 10
85.40140961643102
 20
105.851000276308
 30
0.0
 11
86.20140961643073
 21
105.851000276308
 31
0.0
  0
LINE
  5
2242
330
205B
100
AcDbEntity
  8
0
 62
     7
100
AcDbLine
 10
86.20140961643073
 20
105.851000276308
 30
0.0
 11
86.20140961643073
 21
105.2500002763079
 31
0.0
  0
LINE
  5
2243
330
205B
100
AcDbEntity
  8
0
 62
     7
100
AcDbLine
 10
100.2014096164307
 20
105.2500002763079
 30
0.0
 11
100.2014096164307
 21
105.851000276308
 31
0.0
  0
LINE
  5
2244
330
205B
100
AcDbEntity
  8
0
 62
     7
100
AcDbLine
 10
100.2014096164307
 20
105.851000276308
 30
0.0
 11
101.0014096164304
 21
105.851000276308
 31
0.0
  0
LINE
  5
2245
330
205B
100
AcDbEntity
  8
0
 62
     7
100
AcDbLine
 10
101.0014096164304
 20
105.851000276308
 30
0.0
 11
101.0014096164304
 21
118.651000276308
 31
0.0
  0
LINE
  5
2246
330
205B
100
AcDbEntity
  8
0
 62
     7
100
AcDbLine
 10
101.0014096164304
 20
118.651000276308
 30
0.0
 11
100.2014096164307
 21
118.651000276308
 31
0.0
  0
LINE
  5
2247
330
205B
100
AcDbEntity
  8
0
 62
     7
100
AcDbLine
 10
100.2014096164307
 20
118.651000276308
 30
0.0
 11
100.2014096164307
 21
119.2510002763081
 31
0.0
  0
LINE
  5
2248
330
205B
100
AcDbEntity
  8
0
 62
     7
100
AcDbLine
 10
105.8518096164304
 20
120.0510002763081
 30
0.0
 11
105.8518096164304
 21
119.2510002763081
 31
0.0
  0
LINE
  5
2249
330
205B
100
AcDbEntity
  8
0
 62
     7
100
AcDbLine
 10
105.8518096164304
 20
119.2510002763081
 30
0.0
 11
105.2518096164305
 21
119.2510002763081
 31
0.0
  0
LINE
  5
224A
330
205B
100
AcDbEntity
  8
0
 62
     7
100
AcDbLine
 10
105.2518096164305
 20
105.2500002763079
 30
0.0
 11
105.8518096164304
 21
105.2500002763079
 31
0.0
  0
LINE
  5
224B
330
205B
100
AcDbEntity
  8
0
 62
     7
100
AcDbLine
 10
105.8518096164304
 20
105.2500002763079
 30
0.0
 11
105.8518096164304
 21
104.449000276308
 31
0.0
  0
LINE
  5
224C
330
205B
100
AcDbEntity
  8
0
 62
     7
100
AcDbLine
 10
105.8518096164304
 20
104.449000276308
 30
0.0
 11
118.6518096164302
 21
104.449000276308
 31
0.0
  0
LINE
  5
224D
330
205B
100
AcDbEntity
  8
0
 62
     7
100
AcDbLine
 10
118.6518096164302
 20
104.449000276308
 30
0.0
 11
118.6518096164302
 21
105.2500002763079
 31
0.0
  0
LINE
  5
224E
330
205B
100
AcDbEntity
  8
0
 62
     7
100
AcDbLine
 10
118.6518096164302
 20
105.2500002763079
 30
0.0
 11
119.2518096164305
 21
105.2500002763079
 31
0.0
  0
LINE
  5
224F
330
205B
100
AcDbEntity
  8
0
 62
     7
100
AcDbLine
 10
119.2518096164305
 20
119.2510002763081
 30
0.0
 11
118.6518096164302
 21
119.2510002763081
 31
0.0
  0
LINE
  5
2250
330
205B
100
AcDbEntity
  8
0
 62
     7
100
AcDbLine
 10
118.6518096164302
 20
119.2510002763081
 30
0.0
 11
118.6518096164302
 21
120.0510002763081
 31
0.0
  0
LINE
  5
2251
330
205B
100
AcDbEntity
  8
0
 62
     7
100
AcDbLine
 10
105.2518096164307
 20
119.2510002763081
 30
0.0
 11
105.2518096164307
 21
118.651000276308
 31
0.0
  0
LINE
  5
2252
330
205B
100
AcDbEntity
  8
0
 62
     7
100
AcDbLine
 10
105.2518096164307
 20
118.651000276308
 30
0.0
 11
104.451809616431
 21
118.651000276308
 31
0.0
  0
LINE
  5
2253
330
205B
100
AcDbEntity
  8
0
 62
     7
100
AcDbLine
 10
104.451809616431
 20
118.651000276308
 30
0.0
 11
104.451809616431
 21
105.851000276308
 31
0.0
  0
LINE
  5
2254
330
205B
100
AcDbEntity
  8
0
 62
     7
100
AcDbLine
 10
104.451809616431
 20
105.851000276308
 30
0.0
 11
105.2518096164307
 21
105.851000276308
 31
0.0
  0
LINE
  5
2255
330
205B
100
AcDbEntity
  8
0
 62
     7
100
AcDbLine
 10
105.2518096164307
 20
105.851000276308
 30
0.0
 11
105.2518096164307
 21
105.2500002763079
 31
0.0
  0
LINE
  5
2256
330
205B
100
AcDbEntity
  8
0
 62
     7
100
AcDbLine
 10
119.2518096164307
 20
105.2500002763079
 30
0.0
 11
119.2518096164307
 21
105.851000276308
 31
0.0
  0
LINE
  5
2257
330
205B
100
AcDbEntity
  8
0
 62
     7
100
AcDbLine
 10
119.2518096164307
 20
105.851000276308
 30
0.0
 11
120.0518096164305
 21
105.851000276308
 31
0.0
  0
LINE
  5
2258
330
205B
100
AcDbEntity
  8
0
 62
     7
100
AcDbLine
 10
120.0518096164305
 20
105.851000276308
 30
0.0
 11
120.0518096164305
 21
118.651000276308
 31
0.0
  0
LINE
  5
2259
330
205B
100
AcDbEntity
  8
0
 62
     7
100
AcDbLine
 10
120.0518096164305
 20
118.651000276308
 30
0.0
 11
119.2518096164307
 21
118.651000276308
 31
0.0
  0
LINE
  5
225A
330
205B
100
AcDbEntity
  8
0
 62
     7
100
AcDbLine
 10
119.2518096164307
 20
118.651000276308
 30
0.0
 11
119.2518096164307
 21
119.2510002763081
 31
0.0
  0
LINE
  5
225B
330
205B
100
AcDbEntity
  8
0
 62
     7
100
AcDbLine
 10
124.9018096164305
 20
120.0520002763082
 30
0.0
 11
124.9018096164305
 21
119.2520002763082
 31
0.0
  0
LINE
  5
225C
330
205B
100
AcDbEntity
  8
0
 62
     7
100
AcDbLine
 10
124.9018096164305
 20
119.2520002763082
 30
0.0
 11
124.3018096164306
 21
119.2520002763082
 31
0.0
  0
LINE
  5
225D
330
205B
100
AcDbEntity
  8
0
 62
     7
100
AcDbLine
 10
124.3018096164306
 20
105.251000276308
 30
0.0
 11
124.9018096164305
 21
105.251000276308
 31
0.0
  0
LINE
  5
225E
330
205B
100
AcDbEntity
  8
0
 62
     7
100
AcDbLine
 10
124.9018096164305
 20
105.251000276308
 30
0.0
 11
124.9018096164305
 21
104.4500002763081
 31
0.0
  0
LINE
  5
225F
330
205B
100
AcDbEntity
  8
0
 62
     7
100
AcDbLine
 10
124.9018096164305
 20
104.4500002763081
 30
0.0
 11
137.7018096164302
 21
104.4500002763081
 31
0.0
  0
LINE
  5
2260
330
205B
100
AcDbEntity
  8
0
 62
     7
100
AcDbLine
 10
137.7018096164302
 20
104.4500002763081
 30
0.0
 11
137.7018096164302
 21
105.251000276308
 31
0.0
  0
LINE
  5
2261
330
205B
100
AcDbEntity
  8
0
 62
     7
100
AcDbLine
 10
137.7018096164302
 20
105.251000276308
 30
0.0
 11
138.3018096164305
 21
105.251000276308
 31
0.0
  0
LINE
  5
2262
330
205B
100
AcDbEntity
  8
0
 62
     7
100
AcDbLine
 10
138.3018096164305
 20
119.2520002763082
 30
0.0
 11
137.7018096164302
 21
119.2520002763082
 31
0.0
  0
LINE
  5
2263
330
205B
100
AcDbEntity
  8
0
 62
     7
100
AcDbLine
 10
137.7018096164302
 20
119.2520002763082
 30
0.0
 11
137.7018096164302
 21
120.0520002763082
 31
0.0
  0
LINE
  5
2264
330
205B
100
AcDbEntity
  8
0
 62
     7
100
AcDbLine
 10
124.3018096164308
 20
119.2520002763082
 30
0.0
 11
124.3018096164308
 21
118.6520002763081
 31
0.0
  0
LINE
  5
2265
330
205B
100
AcDbEntity
  8
0
 62
     7
100
AcDbLine
 10
124.3018096164308
 20
118.6520002763081
 30
0.0
 11
123.5018096164311
 21
118.6520002763081
 31
0.0
  0
LINE
  5
2266
330
205B
100
AcDbEntity
  8
0
 62
     7
100
AcDbLine
 10
123.5018096164311
 20
118.6520002763081
 30
0.0
 11
123.5018096164311
 21
105.8520002763081
 31
0.0
  0
LINE
  5
2267
330
205B
100
AcDbEntity
  8
0
 62
     7
100
AcDbLine
 10
123.5018096164311
 20
105.8520002763081
 30
0.0
 11
124.3018096164308
 21
105.8520002763081
 31
0.0
  0
LINE
  5
2268
330
205B
100
AcDbEntity
  8
0
 62
     7
100
AcDbLine
 10
124.3018096164308
 20
105.8520002763081
 30
0.0
 11
124.3018096164308
 21
105.251000276308
 31
0.0
  0
LINE
  5
2269
330
205B
100
AcDbEntity
  8
0
 62
     7
100
AcDbLine
 10
138.3018096164307
 20
105.251000276308
 30
0.0
 11
138.3018096164307
 21
105.8520002763081
 31
0.0
  0
LINE
  5
226A
330
205B
100
AcDbEntity
  8
0
 62
     7
100
AcDbLine
 10
138.3018096164307
 20
105.8520002763081
 30
0.0
 11
139.1018096164305
 21
105.8520002763081
 31
0.0
  0
LINE
  5
226B
330
205B
100
AcDbEntity
  8
0
 62
     7
100
AcDbLine
 10
139.1018096164305
 20
105.8520002763081
 30
0.0
 11
139.1018096164305
 21
118.6520002763081
 31
0.0
  0
LINE
  5
226C
330
205B
100
AcDbEntity
  8
0
 62
     7
100
AcDbLine
 10
139.1018096164305
 20
118.6520002763081
 30
0.0
 11
138.3018096164307
 21
118.6520002763081
 31
0.0
  0
LINE
  5
226D
330
205B
100
AcDbEntity
  8
0
 62
     7
100
AcDbLine
 10
138.3018096164307
 20
118.6520002763081
 30
0.0
 11
138.3018096164307
 21
119.2520002763082
 31
0.0
  0
LINE
  5
226E
330
205B
100
AcDbEntity
  8
0
 62
     7
100
AcDbLine
 10
12.38280961643056
 20
62.10300027630814
 30
0.0
 11
12.38280961643056
 21
61.50220027630808
 31
0.0
  0
LINE
  5
226F
330
205B
100
AcDbEntity
  8
0
 62
     7
100
AcDbLine
 10
12.38280961643056
 20
61.50220027630808
 30
0.0
 11
11.58180961643052
 21
61.50220027630808
 31
0.0
  0
LINE
  5
2270
330
205B
100
AcDbEntity
  8
0
 62
     7
100
AcDbLine
 10
11.58180961643052
 20
61.50220027630808
 30
0.0
 11
11.58180961643052
 21
48.70310027630813
 31
0.0
  0
LINE
  5
2271
330
205B
100
AcDbEntity
  8
0
 62
     7
100
AcDbLine
 10
11.58180961643052
 20
48.70310027630813
 30
0.0
 11
12.38280961643056
 21
48.70310027630813
 31
0.0
  0
LINE
  5
2272
330
205B
100
AcDbEntity
  8
0
 62
     7
100
AcDbLine
 10
12.38280961643056
 20
48.70310027630813
 30
0.0
 11
12.38280961643056
 21
48.10230027630808
 31
0.0
  0
LINE
  5
2273
330
205B
100
AcDbEntity
  8
0
  6
Continuous
 62
     7
100
AcDbLine
 10
136.0618596164307
 20
0.0000002763082421
 30
0.0
 11
-0.0000003835698408
 21
0.0000002763081852
 31
0.0
  0
LINE
  5
2274
330
205B
100
AcDbEntity
  8
0
  6
Continuous
 62
     7
100
AcDbLine
 10
-0.0000003835698408
 20
0.0000002763081852
 30
0.0
 11
-0.0000003835698408
 21
129.2520002763082
 31
0.0
  0
LINE
  5
2275
330
205B
100
AcDbEntity
  8
0
  6
Continuous
 62
     7
100
AcDbLine
 10
-0.0000003835698408
 20
129.2520002763082
 30
0.0
 11
140.8268096164302
 21
129.2520002763083
 31
0.0
  0
CIRCLE
  5
2276
330
205B
100
AcDbEntity
  8
0
  6
Continuous
 62
     7
100
AcDbCircle
 10
131.5680696271708
 20
3.737301476308346
 30
0.0
 40
1.5
  0
LINE
  5
2277
330
205B
100
AcDbEntity
  8
0
  6
Continuous
 62
     7
100
AcDbLine
 10
136.06330961643
 20
64.62550027630823
 30
0.0
 11
136.0633096164301
 21
45.32550027630816
 31
0.0
  0
LINE
  5
2278
330
205B
100
AcDbEntity
  8
0
  6
Continuous
 62
     7
100
AcDbLine
 10
136.0633096164301
 20
45.32550027630816
 30
0.0
 11
145.586119616431
 21
45.32550027630816
 31
0.0
  0
LINE
  5
2279
330
205B
100
AcDbEntity
  8
0
  6
Continuous
 62
     7
100
AcDbLine
 10
136.0618596164307
 20
0.0000002763082421
 30
0.0
 11
136.0618596164307
 21
26.77650027630818
 31
0.0
  0
LINE
  5
227A
330
205B
100
AcDbEntity
  8
0
  6
Continuous
 62
     7
100
AcDbLine
 10
136.0618596164307
 20
26.77650027630818
 30
0.0
 11
145.586119616431
 21
26.77650027630818
 31
0.0
  0
LINE
  5
227B
330
205B
100
AcDbEntity
  8
0
  6
Continuous
 62
     7
100
AcDbLine
 10
145.586119616431
 20
45.32550027630816
 30
0.0
 11
145.586119616431
 21
26.77650027630818
 31
0.0
  0
ENDBLK
  5
227F
330
205B
100
AcDbEntity
  8
0
100
AcDbBlockEnd
  0
BLOCK
  5
27A4
330
27A0
100
AcDbEntity
  8
0
100
AcDbBlockBegin
  2
A$C1399402D
 70
     0
 10
0.0
 20
0.0
 30
0.0
  3
A$C1399402D
  1

  0
LWPOLYLINE
  5
27A1
330
27A0
100
AcDbEntity
  8
0
  6
Continuous
 62
     3
100
AcDbPolyline
 90
        4
 70
     1
 43
0.0
 10
-0.0000010471788983
 20
18.00000042603409
 10
17.9999989528211
 20
18.00000042603409
 10
17.9999989528211
 20
0.0000004260340916
 10
-0.0000010471788983
 20
0.0000004260340916
  0
ENDBLK
  5
27A5
330
27A0
100
AcDbEntity
  8
0
100
AcDbBlockEnd
  0
ENDSEC
  0
SECTION
  2
ENTITIES
  0
LINE
  5
298C
330
6F
100
AcDbEntity
  8
0
  6
Continuous
 62
     7
420
 16777215
100
AcDbLine
 10
-14.27580338019817
 20
225.7280529343457
 30
0.0
 11
-7.525803380198169
 21
225.7280529343457
 31
0.0
  0
LINE
  5
298D
330
6F
100
AcDbEntity
  8
0
 62
     7
420
 16777215
100
AcDbLine
 10
22.28630661980185
 20
221.4298529343455
 30
0.0
 11
22.28630661980185
 21
207.4275529343456
 31
0.0
  0
LINE
  5
298E
330
6F
100
AcDbEntity
  8
0
 62
     7
420
 16777215
100
AcDbLine
 10
5.905706619801833
 20
207.4277529343456
 30
0.0
 11
5.905706619801833
 21
221.4298529343457
 31
0.0
  0
LINE
  5
298F
330
6F
100
AcDbEntity
  8
0
 62
     7
420
 16777215
100
AcDbLine
 10
29.71820661980184
 20
207.4277529343456
 30
0.0
 11
29.71820661980184
 21
221.4298529343457
 31
0.0
  0
LINE
  5
2990
330
6F
100
AcDbEntity
  8
0
 62
     7
420
 16777215
100
AcDbLine
 10
91.63050661980184
 20
221.4298529343457
 30
0.0
 11
105.6305066198018
 21
221.4298529343457
 31
0.0
  0
LINE
  5
2991
330
6F
100
AcDbEntity
  8
0
 62
     7
420
 16777215
100
AcDbLine
 10
105.6305066198018
 20
221.4298529343457
 30
0.0
 11
105.6305066198018
 21
207.4277529343456
 31
0.0
  0
LINE
  5
2992
330
6F
100
AcDbEntity
  8
0
 62
     7
420
 16777215
100
AcDbLine
 10
105.6305066198018
 20
207.4277529343456
 30
0.0
 11
91.63050661980184
 21
207.4277529343456
 31
0.0
  0
LINE
  5
2993
330
6F
100
AcDbEntity
  8
0
 62
     7
420
 16777215
100
AcDbLine
 10
91.63050661980184
 20
207.4277529343456
 30
0.0
 11
91.63050661980184
 21
221.4298529343457
 31
0.0
  0
LINE
  5
2994
330
6F
100
AcDbEntity
  8
0
 62
     7
420
 16777215
100
AcDbLine
 10
-15.52558338019816
 20
240.4784529343455
 30
0.0
 11
-15.52558338019816
 21
226.4787529343455
 31
0.0
  0
LINE
  5
2995
330
6F
100
AcDbEntity
  8
0
 62
     7
420
 16777215
100
AcDbLine
 10
19.90500661980184
 20
226.4787529343455
 30
0.0
 11
19.90500661980184
 21
240.4784529343455
 31
0.0
  0
LINE
  5
2996
330
6F
100
AcDbEntity
  8
0
 62
     7
420
 16777215
100
AcDbLine
 10
24.95570661980185
 20
240.4784529343455
 30
0.0
 11
38.95500661980185
 21
240.4784529343455
 31
0.0
  0
LINE
  5
2997
330
6F
100
AcDbEntity
  8
0
 62
     7
420
 16777215
100
AcDbLine
 10
38.95500661980185
 20
240.4784529343455
 30
0.0
 11
38.95500661980185
 21
226.4777529343455
 31
0.0
  0
LINE
  5
2998
330
6F
100
AcDbEntity
  8
0
 62
     7
420
 16777215
100
AcDbLine
 10
38.95500661980185
 20
226.4777529343455
 30
0.0
 11
24.95570661980185
 21
226.4777529343455
 31
0.0
  0
LINE
  5
2999
330
6F
100
AcDbEntity
  8
0
 62
     7
420
 16777215
100
AcDbLine
 10
24.95570661980185
 20
226.4777529343455
 30
0.0
 11
24.95570661980185
 21
240.4784529343455
 31
0.0
  0
LINE
  5
299A
330
6F
100
AcDbEntity
  8
0
 62
     7
420
 16777215
100
AcDbLine
 10
44.00570661980185
 20
240.4784529343455
 30
0.0
 11
58.00500661980186
 21
240.4784529343455
 31
0.0
  0
LINE
  5
299B
330
6F
100
AcDbEntity
  8
0
 62
     7
420
 16777215
100
AcDbLine
 10
58.00500661980186
 20
240.4784529343455
 30
0.0
 11
58.00500661980186
 21
226.4777529343455
 31
0.0
  0
LINE
  5
299C
330
6F
100
AcDbEntity
  8
0
 62
     7
420
 16777215
100
AcDbLine
 10
58.00500661980186
 20
226.4777529343455
 30
0.0
 11
44.00570661980185
 21
226.4777529343455
 31
0.0
  0
LINE
  5
299D
330
6F
100
AcDbEntity
  8
0
 62
     7
420
 16777215
100
AcDbLine
 10
44.00570661980185
 20
226.4777529343455
 30
0.0
 11
44.00570661980185
 21
240.4784529343455
 31
0.0
  0
LINE
  5
299E
330
6F
100
AcDbEntity
  8
0
 62
     7
420
 16777215
100
AcDbLine
 10
63.05570661980187
 20
240.4784529343455
 30
0.0
 11
77.05500661980181
 21
240.4784529343455
 31
0.0
  0
LINE
  5
299F
330
6F
100
AcDbEntity
  8
0
 62
     7
420
 16777215
100
AcDbLine
 10
77.05500661980181
 20
240.4784529343455
 30
0.0
 11
77.05500661980181
 21
226.4777529343455
 31
0.0
  0
LINE
  5
29A0
330
6F
100
AcDbEntity
  8
0
 62
     7
420
 16777215
100
AcDbLine
 10
77.05500661980181
 20
226.4777529343455
 30
0.0
 11
63.05570661980187
 21
226.4777529343455
 31
0.0
  0
LINE
  5
29A1
330
6F
100
AcDbEntity
  8
0
 62
     7
420
 16777215
100
AcDbLine
 10
63.05570661980187
 20
226.4777529343455
 30
0.0
 11
63.05570661980187
 21
240.4784529343455
 31
0.0
  0
LINE
  5
29A2
330
6F
100
AcDbEntity
  8
0
 62
     7
420
 16777215
100
AcDbLine
 10
82.10550661980187
 20
240.4784529343455
 30
0.0
 11
96.10550661980187
 21
240.4784529343455
 31
0.0
  0
LINE
  5
29A3
330
6F
100
AcDbEntity
  8
0
 62
     7
420
 16777215
100
AcDbLine
 10
96.10550661980187
 20
240.4784529343455
 30
0.0
 11
96.10550661980187
 21
226.4777529343455
 31
0.0
  0
LINE
  5
29A4
330
6F
100
AcDbEntity
  8
0
 62
     7
420
 16777215
100
AcDbLine
 10
96.10550661980187
 20
226.4777529343455
 30
0.0
 11
82.10550661980187
 21
226.4777529343455
 31
0.0
  0
LINE
  5
29A5
330
6F
100
AcDbEntity
  8
0
 62
     7
420
 16777215
100
AcDbLine
 10
82.10550661980187
 20
226.4777529343455
 30
0.0
 11
82.10550661980187
 21
240.4784529343455
 31
0.0
  0
LINE
  5
29A6
330
6F
100
AcDbEntity
  8
0
 62
     7
420
 16777215
100
AcDbLine
 10
-15.52558338019816
 20
259.5284529343455
 30
0.0
 11
3.236406619801869
 21
259.5284529343455
 31
0.0
  0
LINE
  5
29A7
330
6F
100
AcDbEntity
  8
0
 62
     7
420
 16777215
100
AcDbLine
 10
3.236406619801869
 20
259.5284529343455
 30
0.0
 11
3.236406619801869
 21
245.5277529343457
 31
0.0
  0
LINE
  5
29A8
330
6F
100
AcDbEntity
  8
0
 62
     7
420
 16777215
100
AcDbLine
 10
3.236406619801869
 20
245.5277529343457
 30
0.0
 11
-15.52558338019816
 21
245.5277529343457
 31
0.0
  0
LINE
  5
29A9
330
6F
100
AcDbEntity
  8
0
 62
     7
420
 16777215
100
AcDbLine
 10
-15.52558338019816
 20
245.5277529343457
 30
0.0
 11
-15.52558338019816
 21
259.5284529343455
 31
0.0
  0
LINE
  5
29AA
330
6F
100
AcDbEntity
  8
0
 62
     7
420
 16777215
100
AcDbLine
 10
15.43070661980187
 20
259.5284529343455
 30
0.0
 11
29.43000661980182
 21
259.5284529343455
 31
0.0
  0
LINE
  5
29AB
330
6F
100
AcDbEntity
  8
0
 62
     7
420
 16777215
100
AcDbLine
 10
29.43000661980182
 20
259.5284529343455
 30
0.0
 11
29.43000661980182
 21
245.5277529343457
 31
0.0
  0
LINE
  5
29AC
330
6F
100
AcDbEntity
  8
0
 62
     7
420
 16777215
100
AcDbLine
 10
29.43000661980182
 20
245.5277529343457
 30
0.0
 11
15.43070661980187
 21
245.5277529343457
 31
0.0
  0
LINE
  5
29AD
330
6F
100
AcDbEntity
  8
0
 62
     7
420
 16777215
100
AcDbLine
 10
15.43070661980187
 20
245.5277529343457
 30
0.0
 11
15.43070661980187
 21
259.5284529343455
 31
0.0
  0
LINE
  5
29AE
330
6F
100
AcDbEntity
  8
0
 62
     7
420
 16777215
100
AcDbLine
 10
34.48070661980182
 20
259.5284529343455
 30
0.0
 11
48.48000661980183
 21
259.5284529343455
 31
0.0
  0
LINE
  5
29AF
330
6F
100
AcDbEntity
  8
0
 62
     7
420
 16777215
100
AcDbLine
 10
48.48000661980183
 20
259.5284529343455
 30
0.0
 11
48.48000661980183
 21
245.5277529343457
 31
0.0
  0
LINE
  5
29B0
330
6F
100
AcDbEntity
  8
0
 62
     7
420
 16777215
100
AcDbLine
 10
48.48000661980183
 20
245.5277529343457
 30
0.0
 11
34.48070661980182
 21
245.5277529343457
 31
0.0
  0
LINE
  5
29B1
330
6F
100
AcDbEntity
  8
0
 62
     7
420
 16777215
100
AcDbLine
 10
34.48070661980182
 20
245.5277529343457
 30
0.0
 11
34.48070661980182
 21
259.5284529343455
 31
0.0
  0
LINE
  5
29B2
330
6F
100
AcDbEntity
  8
0
 62
     7
420
 16777215
100
AcDbLine
 10
53.53070661980183
 20
259.5284529343455
 30
0.0
 11
67.53000661980184
 21
259.5284529343455
 31
0.0
  0
LINE
  5
29B3
330
6F
100
AcDbEntity
  8
0
 62
     7
420
 16777215
100
AcDbLine
 10
67.53000661980184
 20
259.5284529343455
 30
0.0
 11
67.53000661980184
 21
245.5277529343457
 31
0.0
  0
LINE
  5
29B4
330
6F
100
AcDbEntity
  8
0
 62
     7
420
 16777215
100
AcDbLine
 10
67.53000661980184
 20
245.5277529343457
 30
0.0
 11
53.53070661980183
 21
245.5277529343457
 31
0.0
  0
LINE
  5
29B5
330
6F
100
AcDbEntity
  8
0
 62
     7
420
 16777215
100
AcDbLine
 10
53.53070661980183
 20
245.5277529343457
 30
0.0
 11
53.53070661980183
 21
259.5284529343455
 31
0.0
  0
LINE
  5
29B6
330
6F
100
AcDbEntity
  8
0
 62
     7
420
 16777215
100
AcDbLine
 10
72.58070661980184
 20
259.5284529343455
 30
0.0
 11
86.58050661980183
 21
259.5284529343455
 31
0.0
  0
LINE
  5
29B7
330
6F
100
AcDbEntity
  8
0
 62
     7
420
 16777215
100
AcDbLine
 10
86.58050661980183
 20
259.5284529343455
 30
0.0
 11
86.58050661980183
 21
245.5277529343457
 31
0.0
  0
LINE
  5
29B8
330
6F
100
AcDbEntity
  8
0
 62
     7
420
 16777215
100
AcDbLine
 10
86.58050661980183
 20
245.5277529343457
 30
0.0
 11
72.58070661980184
 21
245.5277529343457
 31
0.0
  0
LINE
  5
29B9
330
6F
100
AcDbEntity
  8
0
 62
     7
420
 16777215
100
AcDbLine
 10
72.58070661980184
 20
245.5277529343457
 30
0.0
 11
72.58070661980184
 21
259.5284529343455
 31
0.0
  0
LINE
  5
29BA
330
6F
100
AcDbEntity
  8
0
 62
     7
420
 16777215
100
AcDbLine
 10
91.63050661980184
 20
259.5284529343455
 30
0.0
 11
105.6305066198018
 21
259.5284529343455
 31
0.0
  0
LINE
  5
29BB
330
6F
100
AcDbEntity
  8
0
 62
     7
420
 16777215
100
AcDbLine
 10
105.6305066198018
 20
259.5284529343455
 30
0.0
 11
105.6305066198018
 21
245.5277529343457
 31
0.0
  0
LINE
  5
29BC
330
6F
100
AcDbEntity
  8
0
 62
     7
420
 16777215
100
AcDbLine
 10
105.6305066198018
 20
245.5277529343457
 30
0.0
 11
91.63050661980184
 21
245.5277529343457
 31
0.0
  0
LINE
  5
29BD
330
6F
100
AcDbEntity
  8
0
 62
     7
420
 16777215
100
AcDbLine
 10
91.63050661980184
 20
245.5277529343457
 30
0.0
 11
91.63050661980184
 21
259.5284529343455
 31
0.0
  0
LINE
  5
29BE
330
6F
100
AcDbEntity
  8
0
 62
     7
420
 16777215
100
AcDbLine
 10
-13.14433338019819
 20
278.5787529343456
 30
0.0
 11
0.8552066198018337
 21
278.5787529343456
 31
0.0
  0
LINE
  5
29BF
330
6F
100
AcDbEntity
  8
0
 62
     7
420
 16777215
100
AcDbLine
 10
0.8552066198018337
 20
278.5787529343456
 30
0.0
 11
0.8552066198018337
 21
264.5777529343456
 31
0.0
  0
LINE
  5
29C0
330
6F
100
AcDbEntity
  8
0
 62
     7
420
 16777215
100
AcDbLine
 10
0.8552066198018337
 20
264.5777529343456
 30
0.0
 11
-13.14433338019819
 21
264.5777529343456
 31
0.0
  0
LINE
  5
29C1
330
6F
100
AcDbEntity
  8
0
 62
     7
420
 16777215
100
AcDbLine
 10
-13.14433338019819
 20
264.5777529343456
 30
0.0
 11
-13.14433338019819
 21
278.5787529343456
 31
0.0
  0
LINE
  5
29C2
330
6F
100
AcDbEntity
  8
0
 62
     7
420
 16777215
100
AcDbLine
 10
10.66820661980182
 20
278.5787529343456
 30
0.0
 11
24.66750661980183
 21
278.5787529343456
 31
0.0
  0
LINE
  5
29C3
330
6F
100
AcDbEntity
  8
0
 62
     7
420
 16777215
100
AcDbLine
 10
24.66750661980183
 20
278.5787529343456
 30
0.0
 11
24.66750661980183
 21
264.5777529343456
 31
0.0
  0
LINE
  5
29C4
330
6F
100
AcDbEntity
  8
0
 62
     7
420
 16777215
100
AcDbLine
 10
24.66750661980183
 20
264.5777529343456
 30
0.0
 11
10.66820661980182
 21
264.5777529343456
 31
0.0
  0
LINE
  5
29C5
330
6F
100
AcDbEntity
  8
0
 62
     7
420
 16777215
100
AcDbLine
 10
10.66820661980182
 20
264.5777529343456
 30
0.0
 11
10.66820661980182
 21
278.5787529343456
 31
0.0
  0
LINE
  5
29C6
330
6F
100
AcDbEntity
  8
0
 62
     7
420
 16777215
100
AcDbLine
 10
29.71820661980184
 20
278.5787529343456
 30
0.0
 11
43.71750661980184
 21
278.5787529343456
 31
0.0
  0
LINE
  5
29C7
330
6F
100
AcDbEntity
  8
0
 62
     7
420
 16777215
100
AcDbLine
 10
43.71750661980184
 20
278.5787529343456
 30
0.0
 11
43.71750661980184
 21
264.5777529343456
 31
0.0
  0
LINE
  5
29C8
330
6F
100
AcDbEntity
  8
0
 62
     7
420
 16777215
100
AcDbLine
 10
43.71750661980184
 20
264.5777529343456
 30
0.0
 11
29.71820661980184
 21
264.5777529343456
 31
0.0
  0
LINE
  5
29C9
330
6F
100
AcDbEntity
  8
0
 62
     7
420
 16777215
100
AcDbLine
 10
29.71820661980184
 20
264.5777529343456
 30
0.0
 11
29.71820661980184
 21
278.5787529343456
 31
0.0
  0
LINE
  5
29CA
330
6F
100
AcDbEntity
  8
0
 62
     7
420
 16777215
100
AcDbLine
 10
48.76820661980184
 20
278.5787529343456
 30
0.0
 11
62.76750661980185
 21
278.5787529343456
 31
0.0
  0
LINE
  5
29CB
330
6F
100
AcDbEntity
  8
0
 62
     7
420
 16777215
100
AcDbLine
 10
62.76750661980185
 20
278.5787529343456
 30
0.0
 11
62.76750661980185
 21
264.5777529343456
 31
0.0
  0
LINE
  5
29CC
330
6F
100
AcDbEntity
  8
0
 62
     7
420
 16777215
100
AcDbLine
 10
62.76750661980185
 20
264.5777529343456
 30
0.0
 11
48.76820661980184
 21
264.5777529343456
 31
0.0
  0
LINE
  5
29CD
330
6F
100
AcDbEntity
  8
0
 62
     7
420
 16777215
100
AcDbLine
 10
48.76820661980184
 20
264.5777529343456
 30
0.0
 11
48.76820661980184
 21
278.5787529343456
 31
0.0
  0
LINE
  5
29CE
330
6F
100
AcDbEntity
  8
0
 62
     7
420
 16777215
100
AcDbLine
 10
67.81820661980185
 20
278.5787529343456
 30
0.0
 11
81.81750661980187
 21
278.5787529343456
 31
0.0
  0
LINE
  5
29CF
330
6F
100
AcDbEntity
  8
0
 62
     7
420
 16777215
100
AcDbLine
 10
81.81750661980187
 20
278.5787529343456
 30
0.0
 11
81.81750661980187
 21
264.5777529343456
 31
0.0
  0
LINE
  5
29D0
330
6F
100
AcDbEntity
  8
0
 62
     7
420
 16777215
100
AcDbLine
 10
81.81750661980187
 20
264.5777529343456
 30
0.0
 11
67.81820661980185
 21
264.5777529343456
 31
0.0
  0
LINE
  5
29D1
330
6F
100
AcDbEntity
  8
0
 62
     7
420
 16777215
100
AcDbLine
 10
67.81820661980185
 20
264.5777529343456
 30
0.0
 11
67.81820661980185
 21
278.5787529343456
 31
0.0
  0
LINE
  5
29D2
330
6F
100
AcDbEntity
  8
0
 62
     7
420
 16777215
100
AcDbLine
 10
86.86850661980185
 20
278.5787529343456
 30
0.0
 11
100.8675066198018
 21
278.5787529343456
 31
0.0
  0
LINE
  5
29D3
330
6F
100
AcDbEntity
  8
0
 62
     7
420
 16777215
100
AcDbLine
 10
100.8675066198018
 20
278.5787529343456
 30
0.0
 11
100.8675066198018
 21
264.5777529343456
 31
0.0
  0
LINE
  5
29D4
330
6F
100
AcDbEntity
  8
0
 62
     7
420
 16777215
100
AcDbLine
 10
100.8675066198018
 20
264.5777529343456
 30
0.0
 11
86.86850661980185
 21
264.5777529343456
 31
0.0
  0
LINE
  5
29D5
330
6F
100
AcDbEntity
  8
0
 62
     7
420
 16777215
100
AcDbLine
 10
86.86850661980185
 20
264.5777529343456
 30
0.0
 11
86.86850661980185
 21
278.5787529343456
 31
0.0
  0
LINE
  5
29D6
330
6F
100
AcDbEntity
  8
0
 62
     7
420
 16777215
100
AcDbLine
 10
-17.90684338019815
 20
297.6287529343456
 30
0.0
 11
-3.907293380198154
 21
297.6287529343456
 31
0.0
  0
LINE
  5
29D7
330
6F
100
AcDbEntity
  8
0
 62
     7
420
 16777215
100
AcDbLine
 10
-3.907293380198154
 20
297.6287529343456
 30
0.0
 11
-3.907293380198154
 21
283.6277529343456
 31
0.0
  0
LINE
  5
29D8
330
6F
100
AcDbEntity
  8
0
 62
     7
420
 16777215
100
AcDbLine
 10
-3.907293380198154
 20
283.6277529343456
 30
0.0
 11
-17.90684338019815
 21
283.6277529343456
 31
0.0
  0
LINE
  5
29D9
330
6F
100
AcDbEntity
  8
0
 62
     7
420
 16777215
100
AcDbLine
 10
-17.90684338019815
 20
283.6277529343456
 30
0.0
 11
-17.90684338019815
 21
297.6287529343456
 31
0.0
  0
LINE
  5
29DA
330
6F
100
AcDbEntity
  8
0
 62
     7
420
 16777215
100
AcDbLine
 10
1.143206619801844
 20
297.6287529343456
 30
0.0
 11
15.14250661980185
 21
297.6287529343456
 31
0.0
  0
LINE
  5
29DB
330
6F
100
AcDbEntity
  8
0
 62
     7
420
 16777215
100
AcDbLine
 10
15.14250661980185
 20
297.6287529343456
 30
0.0
 11
15.14250661980185
 21
283.6277529343456
 31
0.0
  0
LINE
  5
29DC
330
6F
100
AcDbEntity
  8
0
 62
     7
420
 16777215
100
AcDbLine
 10
15.14250661980185
 20
283.6277529343456
 30
0.0
 11
1.143206619801844
 21
283.6277529343456
 31
0.0
  0
LINE
  5
29DD
330
6F
100
AcDbEntity
  8
0
 62
     7
420
 16777215
100
AcDbLine
 10
1.143206619801844
 20
283.6277529343456
 30
0.0
 11
1.143206619801844
 21
297.6287529343456
 31
0.0
  0
LINE
  5
29DE
330
6F
100
AcDbEntity
  8
0
 62
     7
420
 16777215
100
AcDbLine
 10
20.1932066198018
 20
297.6287529343456
 30
0.0
 11
34.19250661980186
 21
297.6287529343456
 31
0.0
  0
LINE
  5
29DF
330
6F
100
AcDbEntity
  8
0
 62
     7
420
 16777215
100
AcDbLine
 10
34.19250661980186
 20
297.6287529343456
 30
0.0
 11
34.19250661980186
 21
283.6277529343456
 31
0.0
  0
LINE
  5
29E0
330
6F
100
AcDbEntity
  8
0
 62
     7
420
 16777215
100
AcDbLine
 10
34.19250661980186
 20
283.6277529343456
 30
0.0
 11
20.1932066198018
 21
283.6277529343456
 31
0.0
  0
LINE
  5
29E1
330
6F
100
AcDbEntity
  8
0
 62
     7
420
 16777215
100
AcDbLine
 10
20.1932066198018
 20
283.6277529343456
 30
0.0
 11
20.1932066198018
 21
297.6287529343456
 31
0.0
  0
LINE
  5
29E2
330
6F
100
AcDbEntity
  8
0
 62
     7
420
 16777215
100
AcDbLine
 10
39.24320661980187
 20
297.6287529343456
 30
0.0
 11
53.24250661980181
 21
297.6287529343456
 31
0.0
  0
LINE
  5
29E3
330
6F
100
AcDbEntity
  8
0
 62
     7
420
 16777215
100
AcDbLine
 10
53.24250661980181
 20
297.6287529343456
 30
0.0
 11
53.24250661980181
 21
283.6277529343456
 31
0.0
  0
LINE
  5
29E4
330
6F
100
AcDbEntity
  8
0
 62
     7
420
 16777215
100
AcDbLine
 10
53.24250661980181
 20
283.6277529343456
 30
0.0
 11
39.24320661980187
 21
283.6277529343456
 31
0.0
  0
LINE
  5
29E5
330
6F
100
AcDbEntity
  8
0
 62
     7
420
 16777215
100
AcDbLine
 10
39.24320661980187
 20
283.6277529343456
 30
0.0
 11
39.24320661980187
 21
297.6287529343456
 31
0.0
  0
LINE
  5
29E6
330
6F
100
AcDbEntity
  8
0
 62
     7
420
 16777215
100
AcDbLine
 10
58.29320661980182
 20
297.6287529343456
 30
0.0
 11
72.29250661980183
 21
297.6287529343456
 31
0.0
  0
LINE
  5
29E7
330
6F
100
AcDbEntity
  8
0
 62
     7
420
 16777215
100
AcDbLine
 10
72.29250661980183
 20
297.6287529343456
 30
0.0
 11
72.29250661980183
 21
283.6277529343456
 31
0.0
  0
LINE
  5
29E8
330
6F
100
AcDbEntity
  8
0
 62
     7
420
 16777215
100
AcDbLine
 10
72.29250661980183
 20
283.6277529343456
 30
0.0
 11
58.29320661980182
 21
283.6277529343456
 31
0.0
  0
LINE
  5
29E9
330
6F
100
AcDbEntity
  8
0
 62
     7
420
 16777215
100
AcDbLine
 10
58.29320661980182
 20
283.6277529343456
 30
0.0
 11
58.29320661980182
 21
297.6287529343456
 31
0.0
  0
LINE
  5
29EA
330
6F
100
AcDbEntity
  8
0
 62
     7
420
 16777215
100
AcDbLine
 10
77.34180661980184
 20
297.6287529343456
 30
0.0
 11
91.34250661980184
 21
297.6287529343456
 31
0.0
  0
LINE
  5
29EB
330
6F
100
AcDbEntity
  8
0
 62
     7
420
 16777215
100
AcDbLine
 10
91.34250661980184
 20
297.6287529343456
 30
0.0
 11
91.34250661980184
 21
283.6277529343456
 31
0.0
  0
LINE
  5
29EC
330
6F
100
AcDbEntity
  8
0
 62
     7
420
 16777215
100
AcDbLine
 10
91.34250661980184
 20
283.6277529343456
 30
0.0
 11
77.34180661980184
 21
283.6277529343456
 31
0.0
  0
LINE
  5
29ED
330
6F
100
AcDbEntity
  8
0
 62
     7
420
 16777215
100
AcDbLine
 10
77.34180661980184
 20
283.6277529343456
 30
0.0
 11
77.34180661980184
 21
297.6287529343456
 31
0.0
  0
LINE
  5
29EE
330
6F
100
AcDbEntity
  8
0
 62
     7
420
 16777215
100
AcDbLine
 10
96.39150661980181
 20
297.6287529343456
 30
0.0
 11
110.3925066198018
 21
297.6287529343456
 31
0.0
  0
LINE
  5
29EF
330
6F
100
AcDbEntity
  8
0
 62
     7
420
 16777215
100
AcDbLine
 10
110.3925066198018
 20
297.6287529343456
 30
0.0
 11
110.3925066198018
 21
283.6277529343456
 31
0.0
  0
LINE
  5
29F0
330
6F
100
AcDbEntity
  8
0
 62
     7
420
 16777215
100
AcDbLine
 10
110.3925066198018
 20
283.6277529343456
 30
0.0
 11
96.39150661980181
 21
283.6277529343456
 31
0.0
  0
LINE
  5
29F1
330
6F
100
AcDbEntity
  8
0
 62
     7
420
 16777215
100
AcDbLine
 10
96.39150661980181
 20
283.6277529343456
 30
0.0
 11
96.39150661980181
 21
297.6287529343456
 31
0.0
  0
LINE
  5
29F2
330
6F
100
AcDbEntity
  8
0
 62
     7
420
 16777215
100
AcDbLine
 10
-17.90684338019815
 20
316.6787529343455
 30
0.0
 11
-3.907293380198154
 21
316.6787529343455
 31
0.0
  0
LINE
  5
29F3
330
6F
100
AcDbEntity
  8
0
 62
     7
420
 16777215
100
AcDbLine
 10
-3.907293380198154
 20
316.6787529343455
 30
0.0
 11
-3.907293380198154
 21
302.6777529343456
 31
0.0
  0
LINE
  5
29F4
330
6F
100
AcDbEntity
  8
0
 62
     7
420
 16777215
100
AcDbLine
 10
-3.907293380198154
 20
302.6777529343456
 30
0.0
 11
-17.90684338019815
 21
302.6777529343456
 31
0.0
  0
LINE
  5
29F5
330
6F
100
AcDbEntity
  8
0
  6
Continuous
 62
     7
420
 16777215
100
AcDbLine
 10
98.63145661980126
 20
223.9532529343455
 30
0.0
 11
98.63145661980126
 21
243.0022529343455
 31
0.0
  0
LINE
  5
29F6
330
6F
100
AcDbEntity
  8
0
 62
     7
420
 16777215
100
AcDbLine
 10
-17.90684338019815
 20
302.6777529343456
 30
0.0
 11
-17.90684338019815
 21
316.6787529343455
 31
0.0
  0
LINE
  5
29F7
330
6F
100
AcDbEntity
  8
0
 62
     7
420
 16777215
100
AcDbLine
 10
1.143206619801844
 20
316.6787529343455
 30
0.0
 11
15.14250661980185
 21
316.6787529343455
 31
0.0
  0
LINE
  5
29F8
330
6F
100
AcDbEntity
  8
0
  6
Continuous
 62
     7
420
 16777215
100
AcDbLine
 10
108.1564566198012
 20
243.0022529343455
 30
0.0
 11
98.63145661980126
 21
243.0022529343455
 31
0.0
  0
LINE
  5
29F9
330
6F
100
AcDbEntity
  8
0
 62
     7
420
 16777215
100
AcDbLine
 10
15.14250661980185
 20
316.6787529343455
 30
0.0
 11
15.14250661980185
 21
302.6777529343456
 31
0.0
  0
LINE
  5
29FA
330
6F
100
AcDbEntity
  8
0
  6
Continuous
 62
     7
420
 16777215
100
AcDbLine
 10
98.63145661980126
 20
223.9532529343455
 30
0.0
 11
108.1550066198018
 21
223.9532529343455
 31
0.0
  0
LINE
  5
29FB
330
6F
100
AcDbEntity
  8
0
 62
     7
420
 16777215
100
AcDbLine
 10
15.14250661980185
 20
302.6777529343456
 30
0.0
 11
1.143206619801844
 21
302.6777529343456
 31
0.0
  0
LINE
  5
29FC
330
6F
100
AcDbEntity
  8
0
 62
     7
420
 16777215
100
AcDbLine
 10
1.143206619801844
 20
302.6777529343456
 30
0.0
 11
1.143206619801844
 21
316.6787529343455
 31
0.0
  0
LINE
  5
29FD
330
6F
100
AcDbEntity
  8
0
 62
     7
420
 16777215
100
AcDbLine
 10
20.1932066198018
 20
316.6787529343455
 30
0.0
 11
34.19250661980186
 21
316.6787529343455
 31
0.0
  0
LINE
  5
29FE
330
6F
100
AcDbEntity
  8
0
 62
     7
420
 16777215
100
AcDbLine
 10
34.19250661980186
 20
316.6787529343455
 30
0.0
 11
34.19250661980186
 21
302.6777529343456
 31
0.0
  0
LINE
  5
29FF
330
6F
100
AcDbEntity
  8
0
 62
     7
420
 16777215
100
AcDbLine
 10
34.19250661980186
 20
302.6777529343456
 30
0.0
 11
20.1932066198018
 21
302.6777529343456
 31
0.0
  0
LINE
  5
2A00
330
6F
100
AcDbEntity
  8
0
 62
     7
420
 16777215
100
AcDbLine
 10
20.1932066198018
 20
302.6777529343456
 30
0.0
 11
20.1932066198018
 21
316.6787529343455
 31
0.0
  0
LINE
  5
2A01
330
6F
100
AcDbEntity
  8
0
 62
     7
420
 16777215
100
AcDbLine
 10
39.24320661980187
 20
316.6787529343455
 30
0.0
 11
53.24250661980181
 21
316.6787529343455
 31
0.0
  0
LINE
  5
2A02
330
6F
100
AcDbEntity
  8
0
 62
     7
420
 16777215
100
AcDbLine
 10
53.24250661980181
 20
316.6787529343455
 30
0.0
 11
53.24250661980181
 21
302.6777529343456
 31
0.0
  0
LINE
  5
2A03
330
6F
100
AcDbEntity
  8
0
 62
     7
420
 16777215
100
AcDbLine
 10
53.24250661980181
 20
302.6777529343456
 30
0.0
 11
39.24320661980187
 21
302.6777529343456
 31
0.0
  0
LINE
  5
2A04
330
6F
100
AcDbEntity
  8
0
 62
     7
420
 16777215
100
AcDbLine
 10
39.24320661980187
 20
302.6777529343456
 30
0.0
 11
39.24320661980187
 21
316.6787529343455
 31
0.0
  0
LINE
  5
2A05
330
6F
100
AcDbEntity
  8
0
 62
     7
420
 16777215
100
AcDbLine
 10
58.29320661980182
 20
316.6787529343455
 30
0.0
 11
72.29250661980183
 21
316.6787529343455
 31
0.0
  0
LINE
  5
2A06
330
6F
100
AcDbEntity
  8
0
 62
     7
420
 16777215
100
AcDbLine
 10
72.29250661980183
 20
316.6787529343455
 30
0.0
 11
72.29250661980183
 21
302.6777529343456
 31
0.0
  0
LINE
  5
2A07
330
6F
100
AcDbEntity
  8
0
 62
     7
420
 16777215
100
AcDbLine
 10
72.29250661980183
 20
302.6777529343456
 30
0.0
 11
58.29320661980182
 21
302.6777529343456
 31
0.0
  0
LINE
  5
2A08
330
6F
100
AcDbEntity
  8
0
 62
     7
420
 16777215
100
AcDbLine
 10
58.29320661980182
 20
302.6777529343456
 30
0.0
 11
58.29320661980182
 21
316.6787529343455
 31
0.0
  0
LINE
  5
2A09
330
6F
100
AcDbEntity
  8
0
 62
     7
420
 16777215
100
AcDbLine
 10
77.34180661980184
 20
316.6787529343455
 30
0.0
 11
91.34250661980184
 21
316.6787529343455
 31
0.0
  0
LINE
  5
2A0A
330
6F
100
AcDbEntity
  8
0
 62
     7
420
 16777215
100
AcDbLine
 10
91.34250661980184
 20
316.6787529343455
 30
0.0
 11
91.34250661980184
 21
302.6777529343456
 31
0.0
  0
LINE
  5
2A0B
330
6F
100
AcDbEntity
  8
0
 62
     7
420
 16777215
100
AcDbLine
 10
91.34250661980184
 20
302.6777529343456
 30
0.0
 11
77.34180661980184
 21
302.6777529343456
 31
0.0
  0
LINE
  5
2A0C
330
6F
100
AcDbEntity
  8
0
 62
     7
420
 16777215
100
AcDbLine
 10
77.34180661980184
 20
302.6777529343456
 30
0.0
 11
77.34180661980184
 21
316.6787529343455
 31
0.0
  0
LINE
  5
2A0D
330
6F
100
AcDbEntity
  8
0
 62
     7
420
 16777215
100
AcDbLine
 10
96.39150661980181
 20
316.6787529343455
 30
0.0
 11
110.3925066198018
 21
316.6787529343455
 31
0.0
  0
LINE
  5
2A0E
330
6F
100
AcDbEntity
  8
0
 62
     7
420
 16777215
100
AcDbLine
 10
110.3925066198018
 20
316.6787529343455
 30
0.0
 11
110.3925066198018
 21
302.6777529343456
 31
0.0
  0
LINE
  5
2A0F
330
6F
100
AcDbEntity
  8
0
 62
     7
420
 16777215
100
AcDbLine
 10
110.3925066198018
 20
302.6777529343456
 30
0.0
 11
96.39150661980181
 21
302.6777529343456
 31
0.0
  0
LINE
  5
2A10
330
6F
100
AcDbEntity
  8
0
 62
     7
420
 16777215
100
AcDbLine
 10
96.39150661980181
 20
302.6777529343456
 30
0.0
 11
96.39150661980181
 21
316.6787529343455
 31
0.0
  0
LINE
  5
2A11
330
6F
100
AcDbEntity
  8
0
  6
Continuous
 62
     7
420
 16777215
100
AcDbLine
 10
112.9199566198012
 20
281.1017528353357
 30
0.0
 11
112.9199566198012
 21
326.6787529343456
 31
0.0
  0
LINE
  5
2A12
330
6F
100
AcDbEntity
  8
0
  6
Continuous
 62
     7
420
 16777215
100
AcDbLine
 10
103.3944566198013
 20
262.0522529343455
 30
0.0
 11
103.3944566198012
 21
281.1022529605975
 31
0.0
  0
LINE
  5
2A13
330
6F
100
AcDbEntity
  8
0
  6
Continuous
 62
     7
420
 16777215
100
AcDbLine
 10
108.1564566198013
 20
243.0022529343455
 30
0.0
 11
108.1564566198012
 21
262.0522529343455
 31
0.0
  0
LINE
  5
2A14
330
6F
100
AcDbEntity
  8
0
  6
Continuous
 62
     7
420
 16777215
100
AcDbLine
 10
103.3944566198012
 20
262.0522529343455
 30
0.0
 11
108.1564566198012
 21
262.0522529343455
 31
0.0
  0
CIRCLE
  5
2A15
330
6F
100
AcDbEntity
  8
0
  6
Continuous
 62
     7
420
 16777215
100
AcDbCircle
 10
-24.16952338019877
 20
322.9408991343455
 30
0.0
 40
1.5
  0
CIRCLE
  5
2A16
330
6F
100
AcDbEntity
  8
0
  6
Continuous
 62
     7
420
 16777215
100
AcDbCircle
 10
104.9569566198012
 20
322.9408991343455
 30
0.0
 40
1.5
  0
CIRCLE
  5
2A17
330
6F
100
AcDbEntity
  8
0
  6
Continuous
 62
     7
420
 16777215
100
AcDbCircle
 10
61.63906475104863
 20
322.9408991343455
 30
0.0
 40
1.5
  0
CIRCLE
  5
2A18
330
6F
100
AcDbEntity
  8
0
  6
Continuous
 62
     7
420
 16777215
100
AcDbCircle
 10
-24.16952338019877
 20
201.1640541343456
 30
0.0
 40
1.5
  0
CIRCLE
  5
2A19
330
6F
100
AcDbEntity
  8
0
  6
Continuous
 62
     7
420
 16777215
100
AcDbCircle
 10
43.74449891980129
 20
201.1640541343456
 30
0.0
 40
1.5
  0
CIRCLE
  5
2A1A
330
6F
100
AcDbEntity
  8
0
  6
Continuous
 62
     7
420
 16777215
100
AcDbCircle
 10
103.6612166305418
 20
201.1640541343456
 30
0.0
 40
1.5
  0
CIRCLE
  5
2A1B
330
6F
100
AcDbEntity
  8
0
  6
Continuous
 62
     7
420
 16777215
100
AcDbCircle
 10
-24.16952338019877
 20
262.0524600343456
 30
0.0
 40
1.5
  0
LINE
  5
2A1C
330
6F
100
AcDbEntity
  8
0
  6
Continuous
 62
     7
420
 16777215
100
AcDbLine
 10
112.9199566198012
 20
326.6787529343456
 30
0.0
 11
-27.90685338019875
 21
326.6787529343456
 31
0.0
  0
LINE
  5
2A1D
330
6F
100
AcDbEntity
  8
0
  6
Continuous
 62
     7
420
 16777215
100
AcDbLine
 10
-27.90685338019875
 20
197.4267529343456
 30
0.0
 11
108.1550066198018
 21
197.4267529343456
 31
0.0
  0
LINE
  5
2A1E
330
6F
100
AcDbEntity
  8
0
  6
Continuous
 62
     7
420
 16777215
100
AcDbLine
 10
-27.90685338019875
 20
326.6787529343456
 30
0.0
 11
-27.90685338019875
 21
197.4267529343453
 31
0.0
  0
LINE
  5
2A1F
330
6F
100
AcDbEntity
  8
0
  6
Continuous
 62
     7
420
 16777215
100
AcDbLine
 10
108.1550066198018
 20
223.9532529343455
 30
0.0
 11
108.1550066198018
 21
197.4267529343456
 31
0.0
  0
LINE
  5
2A20
330
6F
100
AcDbEntity
  8
0
  6
Continuous
 62
     7
420
 16777215
100
AcDbLine
 10
-15.52558338019781
 20
221.4298529343455
 30
0.0
 11
-15.52558338019781
 21
207.4289529343455
 31
0.0
  0
LINE
  5
2A21
330
6F
100
AcDbEntity
  8
0
  6
Continuous
 62
     7
420
 16777215
100
AcDbLine
 10
0.8552066198042211
 20
221.4298529343455
 30
0.0
 11
0.855206619804278
 21
207.4303129343455
 31
0.0
  0
LINE
  5
2A22
330
6F
100
AcDbEntity
  8
0
  6
Continuous
 62
     7
420
 16777215
100
AcDbLine
 10
29.71820661980184
 20
221.4298529343455
 30
0.0
 11
29.71820661980184
 21
207.4287529343453
 31
0.0
  0
LINE
  5
2A23
330
6F
100
AcDbEntity
  8
0
  6
Continuous
 62
     7
420
 16777215
100
AcDbLine
 10
46.09880661980201
 20
221.4298529343455
 30
0.0
 11
46.09880661980201
 21
207.4289529343455
 31
0.0
  0
LINE
  5
2A24
330
6F
100
AcDbEntity
  8
0
  6
Continuous
 62
     7
420
 16777215
100
AcDbLine
 10
-15.52558338019781
 20
221.4298529343455
 30
0.0
 11
0.8552066198042211
 21
221.4298529343455
 31
0.0
  0
LINE
  5
2A25
330
6F
100
AcDbEntity
  8
0
  6
Continuous
 62
     7
420
 16777215
100
AcDbLine
 10
-15.52558338019781
 20
207.4289529343455
 30
0.0
 11
0.855206619804278
 21
207.4303129343455
 31
0.0
  0
LINE
  5
2A26
330
6F
100
AcDbEntity
  8
0
  6
Continuous
 62
     7
420
 16777215
100
AcDbLine
 10
29.71820661980184
 20
221.4298529343455
 30
0.0
 11
46.09880661980201
 21
221.4298529343455
 31
0.0
  0
LINE
  5
2A27
330
6F
100
AcDbEntity
  8
0
  6
Continuous
 62
     7
420
 16777215
100
AcDbLine
 10
29.71820661980184
 20
207.4287529343453
 30
0.0
 11
46.09880661980201
 21
207.4289529343455
 31
0.0
  0
LINE
  5
2A28
330
6F
100
AcDbEntity
  8
0
  6
Continuous
 62
     7
420
 16777215
100
AcDbLine
 10
5.905706619801833
 20
221.4298529343457
 30
0.0
 11
22.28630661980185
 21
221.4298529343457
 31
0.0
  0
LINE
  5
2A29
330
6F
100
AcDbEntity
  8
0
  6
Continuous
 62
     7
420
 16777215
100
AcDbLine
 10
5.905706619801833
 20
207.4277529343456
 30
0.0
 11
22.28630661980185
 21
207.4277529343456
 31
0.0
  0
LINE
  5
2A2A
330
6F
100
AcDbEntity
  8
0
  6
Continuous
 62
     7
420
 16777215
100
AcDbLine
 10
112.9199566198012
 20
281.1017528353357
 30
0.0
 11
103.3944566198012
 21
281.1017528353357
 31
0.0
  0
LINE
  5
2A2B
330
6F
100
AcDbEntity
  8
0
  6
Continuous
 62
     7
420
 16777215
100
AcDbLine
 10
-15.52558338019816
 20
226.4787529343455
 30
0.0
 11
-14.27580338019817
 21
226.4787529343455
 31
0.0
  0
LINE
  5
2A2C
330
6F
100
AcDbEntity
  8
0
  6
Continuous
 62
     7
420
 16777215
100
AcDbLine
 10
-14.27580338019817
 20
226.4787529343455
 30
0.0
 11
-14.27580338019817
 21
225.7280529343457
 31
0.0
  0
LINE
  5
2A2D
330
6F
100
AcDbEntity
  8
0
  6
Continuous
 62
     7
420
 16777215
100
AcDbLine
 10
-7.525803380198169
 20
225.7280529343457
 30
0.0
 11
-7.525803380198169
 21
226.4787529343455
 31
0.0
  0
LINE
  5
2A2E
330
6F
100
AcDbEntity
  8
0
  6
Continuous
 62
     7
420
 16777215
100
AcDbLine
 10
-7.525803380198169
 20
226.4787529343455
 30
0.0
 11
9.524196619801898
 21
226.4787529343455
 31
0.0
  0
LINE
  5
2A2F
330
6F
100
AcDbEntity
  8
0
  6
Continuous
 62
     7
420
 16777215
100
AcDbLine
 10
9.524196619801898
 20
226.4787529343455
 30
0.0
 11
9.524196619801898
 21
225.7280529343457
 31
0.0
  0
LINE
  5
2A30
330
6F
100
AcDbEntity
  8
0
  6
Continuous
 62
     7
420
 16777215
100
AcDbLine
 10
16.27319661980181
 20
225.7280529343457
 30
0.0
 11
16.27319661980181
 21
226.4777529343455
 31
0.0
  0
LINE
  5
2A31
330
6F
100
AcDbEntity
  8
0
  6
Continuous
 62
     7
420
 16777215
100
AcDbLine
 10
16.27319661980181
 20
226.4777529343455
 30
0.0
 11
19.90500661980184
 21
226.4787529343455
 31
0.0
  0
LINE
  5
2A32
330
6F
100
AcDbEntity
  8
0
  6
Continuous
 62
     7
420
 16777215
100
AcDbLine
 10
9.524196619801898
 20
225.7280529343457
 30
0.0
 11
16.27319661980181
 21
225.7280529343457
 31
0.0
  0
LINE
  5
2A33
330
6F
100
AcDbEntity
  8
0
 62
     7
420
 16777215
100
AcDbLine
 10
77.05500661980181
 20
207.4287529343455
 30
0.0
 11
77.05500661980181
 21
221.4298529343457
 31
0.0
  0
LINE
  5
2A34
330
6F
100
AcDbEntity
  8
0
 62
     7
420
 16777215
100
AcDbLine
 10
78.58000661980179
 20
222.1794529343456
 30
0.0
 11
78.58000661980184
 21
206.6791529343457
 31
0.0
  0
LINE
  5
2A35
330
6F
100
AcDbEntity
  8
0
 62
     7
420
 16777215
100
AcDbLine
 10
85.33000661980185
 20
206.6791529343457
 30
0.0
 11
85.33000661980185
 21
222.1794529343456
 31
0.0
  0
LINE
  5
2A36
330
6F
100
AcDbEntity
  8
0
 62
     7
420
 16777215
100
AcDbLine
 10
85.33000661980185
 20
222.1794529343456
 30
0.0
 11
78.58000661980179
 21
222.1794529343456
 31
0.0
  0
LINE
  5
2A37
330
6F
100
AcDbEntity
  8
0
 62
     7
420
 16777215
100
AcDbLine
 10
77.05500661980181
 20
221.4298529343457
 30
0.0
 11
63.05600661980185
 21
221.4298529343457
 31
0.0
  0
LINE
  5
2A38
330
6F
100
AcDbEntity
  8
0
 62
     7
420
 16777215
100
AcDbLine
 10
61.53000661980184
 20
222.1794529343456
 30
0.0
 11
54.78100661980182
 21
222.1794529343456
 31
0.0
  0
LINE
  5
2A39
330
6F
100
AcDbEntity
  8
0
 62
     7
420
 16777215
100
AcDbLine
 10
54.78100661980182
 20
222.1794529343456
 30
0.0
 11
54.78100661980182
 21
206.6791529343457
 31
0.0
  0
LINE
  5
2A3A
330
6F
100
AcDbEntity
  8
0
 62
     7
420
 16777215
100
AcDbLine
 10
61.53000661980184
 20
206.6791529343457
 30
0.0
 11
61.53000661980184
 21
222.1794529343456
 31
0.0
  0
LINE
  5
2A3B
330
6F
100
AcDbEntity
  8
0
 62
     7
420
 16777215
100
AcDbLine
 10
63.05600661980185
 20
207.4287529343455
 30
0.0
 11
77.05500661980181
 21
207.4287529343455
 31
0.0
  0
LINE
  5
2A3C
330
6F
100
AcDbEntity
  8
0
  6
Continuous
 62
     7
420
 16777215
100
AcDbLine
 10
63.05600661980185
 20
221.4298529343457
 30
0.0
 11
63.05600661980185
 21
207.4287529343455
 31
0.0
  0
LINE
  5
2A3D
330
6F
100
AcDbEntity
  8
0
 62
     7
420
 16777215
100
AcDbLine
 10
54.78100661980182
 20
206.6791529343457
 30
0.0
 11
61.53100661980187
 21
206.6791529343457
 31
0.0
  0
LINE
  5
2A3E
330
6F
100
AcDbEntity
  8
0
 62
     7
420
 16777215
100
AcDbLine
 10
78.58100661980188
 20
206.6791529343457
 30
0.0
 11
85.33000661980185
 21
206.6791529343457
 31
0.0
  0
LINE
  5
2A3F
330
6F
100
AcDbEntity
  8
0
  6
Continuous
 62
     7
420
 16777215
100
AcDbLine
 10
-7.526103380198151
 20
226.4790529343457
 30
0.0
 11
-7.526103380198151
 21
225.7280529343457
 31
0.0
  0
LINE
  5
2A40
330
6F
100
AcDbEntity
  8
0
  6
Continuous
 62
     7
420
 16777215
100
AcDbLine
 10
-7.52280338019807
 20
241.2300529343456
 30
0.0
 11
-14.27250338019814
 21
241.2300529343456
 31
0.0
  0
LINE
  5
2A41
330
6F
100
AcDbEntity
  8
0
  6
Continuous
 62
     7
420
 16777215
100
AcDbLine
 10
16.27739661980183
 20
241.2300529343456
 30
0.0
 11
16.27739661980183
 21
240.4790529343456
 31
0.0
  0
LINE
  5
2A42
330
6F
100
AcDbEntity
  8
0
  6
Continuous
 62
     7
420
 16777215
100
AcDbLine
 10
-7.52280338019807
 20
240.4790529343456
 30
0.0
 11
-7.52280338019807
 21
241.2300529343456
 31
0.0
  0
LINE
  5
2A43
330
6F
100
AcDbEntity
  8
0
  6
Continuous
 62
     7
420
 16777215
100
AcDbLine
 10
-14.27250338019814
 20
241.2300529343456
 30
0.0
 11
-14.27250338019814
 21
240.4790529343456
 31
0.0
  0
LINE
  5
2A44
330
6F
100
AcDbEntity
  8
0
  6
Continuous
 62
     7
420
 16777215
100
AcDbLine
 10
9.527696619801872
 20
240.4790529343456
 30
0.0
 11
9.527696619801872
 21
241.2300529343456
 31
0.0
  0
LINE
  5
2A45
330
6F
100
AcDbEntity
  8
0
  6
Continuous
 62
     7
420
 16777215
100
AcDbLine
 10
16.27739661980183
 20
241.2300529343456
 30
0.0
 11
9.527696619801872
 21
241.2300529343456
 31
0.0
  0
LINE
  5
2A46
330
6F
100
AcDbEntity
  8
0
  6
Continuous
 62
     7
420
 16777215
100
AcDbLine
 10
-15.52558338019816
 20
240.4784529343455
 30
0.0
 11
-14.27250338019814
 21
240.4790529343456
 31
0.0
  0
LINE
  5
2A47
330
6F
100
AcDbEntity
  8
0
  6
Continuous
 62
     7
420
 16777215
100
AcDbLine
 10
-7.52280338019807
 20
240.4790529343456
 30
0.0
 11
9.527696619801872
 21
240.4790529343456
 31
0.0
  0
LINE
  5
2A48
330
6F
100
AcDbEntity
  8
0
  6
Continuous
 62
     7
420
 16777215
100
AcDbLine
 10
16.27739661980183
 20
240.4790529343456
 30
0.0
 11
19.90500661980184
 21
240.4784529343455
 31
0.0
  0
LINE
  5
2A49
330
6F
100
AcDbEntity
  8
0
  6
Continuous
 62
     7
420
 16777215
100
AcDbLine
 10
286.9140239151514
 20
282.8777525488113
 30
0.0
 11
293.6637239151514
 21
282.8777525488113
 31
0.0
  0
LINE
  5
2A4A
330
6F
100
AcDbEntity
  8
0
  6
Continuous
 62
     7
420
 16777215
100
AcDbLine
 10
219.003923915152
 20
221.4298525488112
 30
0.0
 11
254.4339239151534
 21
221.4298525488112
 31
0.0
  0
LINE
  5
2A4B
330
6F
100
AcDbEntity
  8
0
 62
     7
420
 16777215
100
AcDbLine
 10
173.4709239151514
 20
207.4287525488112
 30
0.0
 11
173.4709239151514
 21
221.4298525488112
 31
0.0
  0
LINE
  5
2A4C
330
6F
100
AcDbEntity
  8
0
 62
     7
420
 16777215
100
AcDbLine
 10
174.9959239151514
 20
222.1794525488113
 30
0.0
 11
174.9969239151514
 21
206.6791525488113
 31
0.0
  0
LINE
  5
2A4D
330
6F
100
AcDbEntity
  8
0
 62
     7
420
 16777215
100
AcDbLine
 10
181.7459239151513
 20
206.6791525488113
 30
0.0
 11
181.7459239151513
 21
222.1794525488113
 31
0.0
  0
LINE
  5
2A4E
330
6F
100
AcDbEntity
  8
0
 62
     7
420
 16777215
100
AcDbLine
 10
181.7459239151513
 20
222.1794525488113
 30
0.0
 11
174.9959239151514
 21
222.1794525488113
 31
0.0
  0
LINE
  5
2A4F
330
6F
100
AcDbEntity
  8
0
 62
     7
420
 16777215
100
AcDbLine
 10
173.4709239151514
 20
221.4298525488112
 30
0.0
 11
159.4719239151513
 21
221.4298525488112
 31
0.0
  0
LINE
  5
2A50
330
6F
100
AcDbEntity
  8
0
 62
     7
420
 16777215
100
AcDbLine
 10
157.9459239151514
 20
222.1794525488113
 30
0.0
 11
151.1969239151514
 21
222.1794525488113
 31
0.0
  0
LINE
  5
2A51
330
6F
100
AcDbEntity
  8
0
 62
     7
420
 16777215
100
AcDbLine
 10
151.1969239151514
 20
222.1794525488113
 30
0.0
 11
151.1969239151514
 21
206.6791525488113
 31
0.0
  0
LINE
  5
2A52
330
6F
100
AcDbEntity
  8
0
 62
     7
420
 16777215
100
AcDbLine
 10
157.9459239151514
 20
206.6791525488113
 30
0.0
 11
157.9459239151514
 21
222.1794525488113
 31
0.0
  0
LINE
  5
2A53
330
6F
100
AcDbEntity
  8
0
 62
     7
420
 16777215
100
AcDbLine
 10
159.4719239151513
 20
207.4287525488112
 30
0.0
 11
173.4709239151514
 21
207.4287525488112
 31
0.0
  0
LINE
  5
2A54
330
6F
100
AcDbEntity
  8
0
 62
     7
420
 16777215
100
AcDbLine
 10
213.9529239151514
 20
221.4298525488112
 30
0.0
 11
213.9529239151514
 21
207.4277525488114
 31
0.0
  0
LINE
  5
2A55
330
6F
100
AcDbEntity
  8
0
 62
     7
420
 16777215
100
AcDbLine
 10
261.8639239151514
 20
221.4298525488112
 30
0.0
 11
275.8649239151514
 21
221.4298525488112
 31
0.0
  0
LINE
  5
2A56
330
6F
100
AcDbEntity
  8
0
 62
     7
420
 16777215
100
AcDbLine
 10
275.8649239151514
 20
221.4298525488112
 30
0.0
 11
275.8649239151514
 21
207.4277525488114
 31
0.0
  0
LINE
  5
2A57
330
6F
100
AcDbEntity
  8
0
 62
     7
420
 16777215
100
AcDbLine
 10
275.8649239151514
 20
207.4277525488114
 30
0.0
 11
261.8639239151514
 21
207.4277525488114
 31
0.0
  0
LINE
  5
2A58
330
6F
100
AcDbEntity
  8
0
 62
     7
420
 16777215
100
AcDbLine
 10
261.8639239151514
 20
207.4277525488114
 30
0.0
 11
261.8639239151514
 21
221.4298525488112
 31
0.0
  0
LINE
  5
2A59
330
6F
100
AcDbEntity
  8
0
 62
     7
420
 16777215
100
AcDbLine
 10
280.9139239151514
 20
221.4298525488112
 30
0.0
 11
294.9149239151515
 21
221.4298525488112
 31
0.0
  0
LINE
  5
2A5A
330
6F
100
AcDbEntity
  8
0
 62
     7
420
 16777215
100
AcDbLine
 10
294.9149239151515
 20
221.4298525488112
 30
0.0
 11
294.9149239151515
 21
207.4277525488114
 31
0.0
  0
LINE
  5
2A5B
330
6F
100
AcDbEntity
  8
0
 62
     7
420
 16777215
100
AcDbLine
 10
294.9149239151515
 20
207.4277525488114
 30
0.0
 11
280.9139239151514
 21
207.4277525488114
 31
0.0
  0
LINE
  5
2A5C
330
6F
100
AcDbEntity
  8
0
 62
     7
420
 16777215
100
AcDbLine
 10
280.9139239151514
 20
207.4277525488114
 30
0.0
 11
280.9139239151514
 21
221.4298525488112
 31
0.0
  0
LINE
  5
2A5D
330
6F
100
AcDbEntity
  8
0
 62
     7
420
 16777215
100
AcDbLine
 10
299.9659239151514
 20
221.4298525488112
 30
0.0
 11
313.9649239151514
 21
221.4298525488112
 31
0.0
  0
LINE
  5
2A5E
330
6F
100
AcDbEntity
  8
0
 62
     7
420
 16777215
100
AcDbLine
 10
313.9649239151514
 20
221.4298525488112
 30
0.0
 11
313.9649239151514
 21
207.4277525488114
 31
0.0
  0
LINE
  5
2A5F
330
6F
100
AcDbEntity
  8
0
 62
     7
420
 16777215
100
AcDbLine
 10
313.9649239151514
 20
207.4277525488114
 30
0.0
 11
299.9659239151514
 21
207.4277525488114
 31
0.0
  0
LINE
  5
2A60
330
6F
100
AcDbEntity
  8
0
 62
     7
420
 16777215
100
AcDbLine
 10
299.9659239151514
 20
207.4277525488114
 30
0.0
 11
299.9659239151514
 21
221.4298525488112
 31
0.0
  0
LINE
  5
2A61
330
6F
100
AcDbEntity
  8
0
 62
     7
420
 16777215
100
AcDbLine
 10
133.2779239151514
 20
240.4784525488112
 30
0.0
 11
147.2779239151514
 21
240.4784525488112
 31
0.0
  0
LINE
  5
2A62
330
6F
100
AcDbEntity
  8
0
 62
     7
420
 16777215
100
AcDbLine
 10
147.2779239151514
 20
240.4784525488112
 30
0.0
 11
147.2779239151514
 21
226.4777525488112
 31
0.0
  0
LINE
  5
2A63
330
6F
100
AcDbEntity
  8
0
 62
     7
420
 16777215
100
AcDbLine
 10
147.2779239151514
 20
226.4777525488112
 30
0.0
 11
133.2779239151514
 21
226.4777525488112
 31
0.0
  0
LINE
  5
2A64
330
6F
100
AcDbEntity
  8
0
 62
     7
420
 16777215
100
AcDbLine
 10
133.2779239151514
 20
226.4777525488112
 30
0.0
 11
133.2779239151514
 21
240.4784525488112
 31
0.0
  0
LINE
  5
2A65
330
6F
100
AcDbEntity
  8
0
 62
     7
420
 16777215
100
AcDbLine
 10
152.3279239151513
 20
240.4784525488112
 30
0.0
 11
166.3279239151513
 21
240.4784525488112
 31
0.0
  0
LINE
  5
2A66
330
6F
100
AcDbEntity
  8
0
 62
     7
420
 16777215
100
AcDbLine
 10
166.3279239151513
 20
240.4784525488112
 30
0.0
 11
166.3279239151513
 21
226.4777525488112
 31
0.0
  0
LINE
  5
2A67
330
6F
100
AcDbEntity
  8
0
 62
     7
420
 16777215
100
AcDbLine
 10
166.3279239151513
 20
226.4777525488112
 30
0.0
 11
152.3279239151513
 21
226.4777525488112
 31
0.0
  0
LINE
  5
2A68
330
6F
100
AcDbEntity
  8
0
 62
     7
420
 16777215
100
AcDbLine
 10
152.3279239151513
 20
226.4777525488112
 30
0.0
 11
152.3279239151513
 21
240.4784525488112
 31
0.0
  0
LINE
  5
2A69
330
6F
100
AcDbEntity
  8
0
 62
     7
420
 16777215
100
AcDbLine
 10
171.3779239151514
 20
240.4784525488112
 30
0.0
 11
185.3779239151514
 21
240.4784525488112
 31
0.0
  0
LINE
  5
2A6A
330
6F
100
AcDbEntity
  8
0
 62
     7
420
 16777215
100
AcDbLine
 10
185.3779239151514
 20
240.4784525488112
 30
0.0
 11
185.3779239151514
 21
226.4777525488112
 31
0.0
  0
LINE
  5
2A6B
330
6F
100
AcDbEntity
  8
0
 62
     7
420
 16777215
100
AcDbLine
 10
185.3779239151514
 20
226.4777525488112
 30
0.0
 11
171.3779239151514
 21
226.4777525488112
 31
0.0
  0
LINE
  5
2A6C
330
6F
100
AcDbEntity
  8
0
 62
     7
420
 16777215
100
AcDbLine
 10
171.3779239151514
 20
226.4777525488112
 30
0.0
 11
171.3779239151514
 21
240.4784525488112
 31
0.0
  0
LINE
  5
2A6D
330
6F
100
AcDbEntity
  8
0
 62
     7
420
 16777215
100
AcDbLine
 10
190.4279239151513
 20
240.4784525488112
 30
0.0
 11
204.4279239151514
 21
240.4784525488112
 31
0.0
  0
LINE
  5
2A6E
330
6F
100
AcDbEntity
  8
0
 62
     7
420
 16777215
100
AcDbLine
 10
204.4279239151514
 20
240.4784525488112
 30
0.0
 11
204.4279239151514
 21
226.4777525488112
 31
0.0
  0
LINE
  5
2A6F
330
6F
100
AcDbEntity
  8
0
 62
     7
420
 16777215
100
AcDbLine
 10
204.4279239151514
 20
226.4777525488112
 30
0.0
 11
190.4279239151513
 21
226.4777525488112
 31
0.0
  0
LINE
  5
2A70
330
6F
100
AcDbEntity
  8
0
 62
     7
420
 16777215
100
AcDbLine
 10
190.4279239151513
 20
226.4777525488112
 30
0.0
 11
190.4279239151513
 21
240.4784525488112
 31
0.0
  0
LINE
  5
2A71
330
6F
100
AcDbEntity
  8
0
 62
     7
420
 16777215
100
AcDbLine
 10
209.4779239151514
 20
240.4784525488112
 30
0.0
 11
223.4779239151515
 21
240.4784525488112
 31
0.0
  0
LINE
  5
2A72
330
6F
100
AcDbEntity
  8
0
 62
     7
420
 16777215
100
AcDbLine
 10
223.4779239151515
 20
240.4784525488112
 30
0.0
 11
223.4779239151515
 21
226.4777525488112
 31
0.0
  0
LINE
  5
2A73
330
6F
100
AcDbEntity
  8
0
 62
     7
420
 16777215
100
AcDbLine
 10
223.4779239151515
 20
226.4777525488112
 30
0.0
 11
209.4779239151514
 21
226.4777525488112
 31
0.0
  0
LINE
  5
2A74
330
6F
100
AcDbEntity
  8
0
 62
     7
420
 16777215
100
AcDbLine
 10
209.4779239151514
 20
226.4777525488112
 30
0.0
 11
209.4779239151514
 21
240.4784525488112
 31
0.0
  0
LINE
  5
2A75
330
6F
100
AcDbEntity
  8
0
 62
     7
420
 16777215
100
AcDbLine
 10
228.5279239151514
 20
240.4784525488112
 30
0.0
 11
242.5279239151514
 21
240.4784525488112
 31
0.0
  0
LINE
  5
2A76
330
6F
100
AcDbEntity
  8
0
 62
     7
420
 16777215
100
AcDbLine
 10
242.5279239151514
 20
240.4784525488112
 30
0.0
 11
242.5279239151514
 21
226.4777525488112
 31
0.0
  0
LINE
  5
2A77
330
6F
100
AcDbEntity
  8
0
 62
     7
420
 16777215
100
AcDbLine
 10
242.5279239151514
 20
226.4777525488112
 30
0.0
 11
228.5279239151514
 21
226.4777525488112
 31
0.0
  0
LINE
  5
2A78
330
6F
100
AcDbEntity
  8
0
 62
     7
420
 16777215
100
AcDbLine
 10
228.5279239151514
 20
226.4777525488112
 30
0.0
 11
228.5279239151514
 21
240.4784525488112
 31
0.0
  0
LINE
  5
2A79
330
6F
100
AcDbEntity
  8
0
 62
     7
420
 16777215
100
AcDbLine
 10
254.7219239151514
 20
240.4784525488112
 30
0.0
 11
268.7209239151514
 21
240.4784525488112
 31
0.0
  0
LINE
  5
2A7A
330
6F
100
AcDbEntity
  8
0
 62
     7
420
 16777215
100
AcDbLine
 10
268.7209239151514
 20
240.4784525488112
 30
0.0
 11
268.7209239151514
 21
226.4777525488112
 31
0.0
  0
LINE
  5
2A7B
330
6F
100
AcDbEntity
  8
0
 62
     7
420
 16777215
100
AcDbLine
 10
268.7209239151514
 20
226.4777525488112
 30
0.0
 11
254.7219239151514
 21
226.4777525488112
 31
0.0
  0
LINE
  5
2A7C
330
6F
100
AcDbEntity
  8
0
 62
     7
420
 16777215
100
AcDbLine
 10
254.7219239151514
 20
226.4777525488112
 30
0.0
 11
254.7219239151514
 21
240.4784525488112
 31
0.0
  0
LINE
  5
2A7D
330
6F
100
AcDbEntity
  8
0
 62
     7
420
 16777215
100
AcDbLine
 10
280.9159239151514
 20
240.4784525488112
 30
0.0
 11
294.9149239151515
 21
240.4784525488112
 31
0.0
  0
LINE
  5
2A7E
330
6F
100
AcDbEntity
  8
0
 62
     7
420
 16777215
100
AcDbLine
 10
294.9149239151515
 20
240.4784525488112
 30
0.0
 11
294.9149239151515
 21
226.4777525488112
 31
0.0
  0
LINE
  5
2A7F
330
6F
100
AcDbEntity
  8
0
 62
     7
420
 16777215
100
AcDbLine
 10
294.9149239151515
 20
226.4777525488112
 30
0.0
 11
280.9159239151514
 21
226.4777525488112
 31
0.0
  0
LINE
  5
2A80
330
6F
100
AcDbEntity
  8
0
 62
     7
420
 16777215
100
AcDbLine
 10
280.9159239151514
 20
226.4777525488112
 30
0.0
 11
280.9159239151514
 21
240.4784525488112
 31
0.0
  0
LINE
  5
2A81
330
6F
100
AcDbEntity
  8
0
 62
     7
420
 16777215
100
AcDbLine
 10
299.9659239151514
 20
240.4784525488112
 30
0.0
 11
313.9649239151514
 21
240.4784525488112
 31
0.0
  0
LINE
  5
2A82
330
6F
100
AcDbEntity
  8
0
 62
     7
420
 16777215
100
AcDbLine
 10
313.9649239151514
 20
240.4784525488112
 30
0.0
 11
313.9649239151514
 21
226.4777525488112
 31
0.0
  0
LINE
  5
2A83
330
6F
100
AcDbEntity
  8
0
 62
     7
420
 16777215
100
AcDbLine
 10
313.9649239151514
 20
226.4777525488112
 30
0.0
 11
299.9659239151514
 21
226.4777525488112
 31
0.0
  0
LINE
  5
2A84
330
6F
100
AcDbEntity
  8
0
 62
     7
420
 16777215
100
AcDbLine
 10
299.9659239151514
 20
226.4777525488112
 30
0.0
 11
299.9659239151514
 21
240.4784525488112
 31
0.0
  0
LINE
  5
2A85
330
6F
100
AcDbEntity
  8
0
 62
     7
420
 16777215
100
AcDbLine
 10
142.8029239151514
 20
259.5284525488114
 30
0.0
 11
156.8029239151513
 21
259.5284525488114
 31
0.0
  0
LINE
  5
2A86
330
6F
100
AcDbEntity
  8
0
 62
     7
420
 16777215
100
AcDbLine
 10
156.8029239151513
 20
259.5284525488114
 30
0.0
 11
156.8029239151513
 21
245.5277525488114
 31
0.0
  0
LINE
  5
2A87
330
6F
100
AcDbEntity
  8
0
 62
     7
420
 16777215
100
AcDbLine
 10
156.8029239151513
 20
245.5277525488114
 30
0.0
 11
142.8029239151514
 21
245.5277525488114
 31
0.0
  0
LINE
  5
2A88
330
6F
100
AcDbEntity
  8
0
 62
     7
420
 16777215
100
AcDbLine
 10
142.8029239151514
 20
245.5277525488114
 30
0.0
 11
142.8029239151514
 21
259.5284525488114
 31
0.0
  0
LINE
  5
2A89
330
6F
100
AcDbEntity
  8
0
 62
     7
420
 16777215
100
AcDbLine
 10
161.8529239151514
 20
259.5284525488114
 30
0.0
 11
175.8529239151514
 21
259.5284525488114
 31
0.0
  0
LINE
  5
2A8A
330
6F
100
AcDbEntity
  8
0
 62
     7
420
 16777215
100
AcDbLine
 10
175.8529239151514
 20
259.5284525488114
 30
0.0
 11
175.8529239151514
 21
245.5277525488114
 31
0.0
  0
LINE
  5
2A8B
330
6F
100
AcDbEntity
  8
0
 62
     7
420
 16777215
100
AcDbLine
 10
175.8529239151514
 20
245.5277525488114
 30
0.0
 11
161.8529239151514
 21
245.5277525488114
 31
0.0
  0
LINE
  5
2A8C
330
6F
100
AcDbEntity
  8
0
 62
     7
420
 16777215
100
AcDbLine
 10
161.8529239151514
 20
245.5277525488114
 30
0.0
 11
161.8529239151514
 21
259.5284525488114
 31
0.0
  0
LINE
  5
2A8D
330
6F
100
AcDbEntity
  8
0
 62
     7
420
 16777215
100
AcDbLine
 10
180.9029239151514
 20
259.5284525488114
 30
0.0
 11
194.9029239151514
 21
259.5284525488114
 31
0.0
  0
LINE
  5
2A8E
330
6F
100
AcDbEntity
  8
0
 62
     7
420
 16777215
100
AcDbLine
 10
194.9029239151514
 20
259.5284525488114
 30
0.0
 11
194.9029239151514
 21
245.5277525488114
 31
0.0
  0
LINE
  5
2A8F
330
6F
100
AcDbEntity
  8
0
 62
     7
420
 16777215
100
AcDbLine
 10
194.9029239151514
 20
245.5277525488114
 30
0.0
 11
180.9029239151514
 21
245.5277525488114
 31
0.0
  0
LINE
  5
2A90
330
6F
100
AcDbEntity
  8
0
 62
     7
420
 16777215
100
AcDbLine
 10
180.9029239151514
 20
245.5277525488114
 30
0.0
 11
180.9029239151514
 21
259.5284525488114
 31
0.0
  0
LINE
  5
2A91
330
6F
100
AcDbEntity
  8
0
 62
     7
420
 16777215
100
AcDbLine
 10
199.9529239151513
 20
259.5284525488114
 30
0.0
 11
213.9529239151514
 21
259.5284525488114
 31
0.0
  0
LINE
  5
2A92
330
6F
100
AcDbEntity
  8
0
 62
     7
420
 16777215
100
AcDbLine
 10
213.9529239151514
 20
259.5284525488114
 30
0.0
 11
213.9529239151514
 21
245.5277525488114
 31
0.0
  0
LINE
  5
2A93
330
6F
100
AcDbEntity
  8
0
 62
     7
420
 16777215
100
AcDbLine
 10
213.9529239151514
 20
245.5277525488114
 30
0.0
 11
199.9529239151513
 21
245.5277525488114
 31
0.0
  0
LINE
  5
2A94
330
6F
100
AcDbEntity
  8
0
 62
     7
420
 16777215
100
AcDbLine
 10
199.9529239151513
 20
245.5277525488114
 30
0.0
 11
199.9529239151513
 21
259.5284525488114
 31
0.0
  0
LINE
  5
2A95
330
6F
100
AcDbEntity
  8
0
 62
     7
420
 16777215
100
AcDbLine
 10
219.0029239151514
 20
259.5284525488114
 30
0.0
 11
233.0029239151514
 21
259.5284525488114
 31
0.0
  0
LINE
  5
2A96
330
6F
100
AcDbEntity
  8
0
 62
     7
420
 16777215
100
AcDbLine
 10
233.0029239151514
 20
259.5284525488114
 30
0.0
 11
233.0029239151514
 21
245.5277525488114
 31
0.0
  0
LINE
  5
2A97
330
6F
100
AcDbEntity
  8
0
 62
     7
420
 16777215
100
AcDbLine
 10
233.0029239151514
 20
245.5277525488114
 30
0.0
 11
219.0029239151514
 21
245.5277525488114
 31
0.0
  0
LINE
  5
2A98
330
6F
100
AcDbEntity
  8
0
 62
     7
420
 16777215
100
AcDbLine
 10
219.0029239151514
 20
245.5277525488114
 30
0.0
 11
219.0029239151514
 21
259.5284525488114
 31
0.0
  0
LINE
  5
2A99
330
6F
100
AcDbEntity
  8
0
 62
     7
420
 16777215
100
AcDbLine
 10
238.0529239151514
 20
259.5284525488114
 30
0.0
 11
252.0529239151514
 21
259.5284525488114
 31
0.0
  0
LINE
  5
2A9A
330
6F
100
AcDbEntity
  8
0
 62
     7
420
 16777215
100
AcDbLine
 10
252.0529239151514
 20
259.5284525488114
 30
0.0
 11
252.0529239151514
 21
245.5277525488114
 31
0.0
  0
LINE
  5
2A9B
330
6F
100
AcDbEntity
  8
0
 62
     7
420
 16777215
100
AcDbLine
 10
252.0529239151514
 20
245.5277525488114
 30
0.0
 11
238.0529239151514
 21
245.5277525488114
 31
0.0
  0
LINE
  5
2A9C
330
6F
100
AcDbEntity
  8
0
 62
     7
420
 16777215
100
AcDbLine
 10
238.0529239151514
 20
245.5277525488114
 30
0.0
 11
238.0529239151514
 21
259.5284525488114
 31
0.0
  0
LINE
  5
2A9D
330
6F
100
AcDbEntity
  8
0
 62
     7
420
 16777215
100
AcDbLine
 10
299.9659239151514
 20
259.5284525488114
 30
0.0
 11
313.9649239151514
 21
259.5284525488114
 31
0.0
  0
LINE
  5
2A9E
330
6F
100
AcDbEntity
  8
0
 62
     7
420
 16777215
100
AcDbLine
 10
313.9649239151514
 20
259.5284525488114
 30
0.0
 11
313.9649239151514
 21
245.5277525488114
 31
0.0
  0
LINE
  5
2A9F
330
6F
100
AcDbEntity
  8
0
 62
     7
420
 16777215
100
AcDbLine
 10
313.9649239151514
 20
245.5277525488114
 30
0.0
 11
299.9659239151514
 21
245.5277525488114
 31
0.0
  0
LINE
  5
2AA0
330
6F
100
AcDbEntity
  8
0
 62
     7
420
 16777215
100
AcDbLine
 10
299.9659239151514
 20
245.5277525488114
 30
0.0
 11
299.9659239151514
 21
259.5284525488114
 31
0.0
  0
LINE
  5
2AA1
330
6F
100
AcDbEntity
  8
0
 62
     7
420
 16777215
100
AcDbLine
 10
138.0409239151514
 20
278.5787525488113
 30
0.0
 11
152.0399239151513
 21
278.5787525488113
 31
0.0
  0
LINE
  5
2AA2
330
6F
100
AcDbEntity
  8
0
 62
     7
420
 16777215
100
AcDbLine
 10
152.0399239151513
 20
278.5787525488113
 30
0.0
 11
152.0399239151513
 21
264.5777525488113
 31
0.0
  0
LINE
  5
2AA3
330
6F
100
AcDbEntity
  8
0
 62
     7
420
 16777215
100
AcDbLine
 10
152.0399239151513
 20
264.5777525488113
 30
0.0
 11
138.0409239151514
 21
264.5777525488113
 31
0.0
  0
LINE
  5
2AA4
330
6F
100
AcDbEntity
  8
0
 62
     7
420
 16777215
100
AcDbLine
 10
138.0409239151514
 20
264.5777525488113
 30
0.0
 11
138.0409239151514
 21
278.5787525488113
 31
0.0
  0
LINE
  5
2AA5
330
6F
100
AcDbEntity
  8
0
 62
     7
420
 16777215
100
AcDbLine
 10
157.0909239151514
 20
278.5787525488113
 30
0.0
 11
171.0899239151514
 21
278.5787525488113
 31
0.0
  0
LINE
  5
2AA6
330
6F
100
AcDbEntity
  8
0
 62
     7
420
 16777215
100
AcDbLine
 10
171.0899239151514
 20
278.5787525488113
 30
0.0
 11
171.0899239151514
 21
264.5777525488113
 31
0.0
  0
LINE
  5
2AA7
330
6F
100
AcDbEntity
  8
0
 62
     7
420
 16777215
100
AcDbLine
 10
171.0899239151514
 20
264.5777525488113
 30
0.0
 11
157.0909239151514
 21
264.5777525488113
 31
0.0
  0
LINE
  5
2AA8
330
6F
100
AcDbEntity
  8
0
 62
     7
420
 16777215
100
AcDbLine
 10
157.0909239151514
 20
264.5777525488113
 30
0.0
 11
157.0909239151514
 21
278.5787525488113
 31
0.0
  0
LINE
  5
2AA9
330
6F
100
AcDbEntity
  8
0
 62
     7
420
 16777215
100
AcDbLine
 10
176.1409239151514
 20
278.5787525488113
 30
0.0
 11
190.1399239151515
 21
278.5787525488113
 31
0.0
  0
LINE
  5
2AAA
330
6F
100
AcDbEntity
  8
0
 62
     7
420
 16777215
100
AcDbLine
 10
190.1399239151515
 20
278.5787525488113
 30
0.0
 11
190.1399239151515
 21
264.5777525488113
 31
0.0
  0
LINE
  5
2AAB
330
6F
100
AcDbEntity
  8
0
 62
     7
420
 16777215
100
AcDbLine
 10
190.1399239151515
 20
264.5777525488113
 30
0.0
 11
176.1409239151514
 21
264.5777525488113
 31
0.0
  0
LINE
  5
2AAC
330
6F
100
AcDbEntity
  8
0
 62
     7
420
 16777215
100
AcDbLine
 10
176.1409239151514
 20
264.5777525488113
 30
0.0
 11
176.1409239151514
 21
278.5787525488113
 31
0.0
  0
LINE
  5
2AAD
330
6F
100
AcDbEntity
  8
0
 62
     7
420
 16777215
100
AcDbLine
 10
195.1909239151514
 20
278.5787525488113
 30
0.0
 11
209.1899239151514
 21
278.5787525488113
 31
0.0
  0
LINE
  5
2AAE
330
6F
100
AcDbEntity
  8
0
 62
     7
420
 16777215
100
AcDbLine
 10
209.1899239151514
 20
278.5787525488113
 30
0.0
 11
209.1899239151514
 21
264.5777525488113
 31
0.0
  0
LINE
  5
2AAF
330
6F
100
AcDbEntity
  8
0
 62
     7
420
 16777215
100
AcDbLine
 10
209.1899239151514
 20
264.5777525488113
 30
0.0
 11
195.1909239151514
 21
264.5777525488113
 31
0.0
  0
LINE
  5
2AB0
330
6F
100
AcDbEntity
  8
0
 62
     7
420
 16777215
100
AcDbLine
 10
195.1909239151514
 20
264.5777525488113
 30
0.0
 11
195.1909239151514
 21
278.5787525488113
 31
0.0
  0
LINE
  5
2AB1
330
6F
100
AcDbEntity
  8
0
 62
     7
420
 16777215
100
AcDbLine
 10
214.2409239151514
 20
278.5787525488113
 30
0.0
 11
228.2399239151514
 21
278.5787525488113
 31
0.0
  0
LINE
  5
2AB2
330
6F
100
AcDbEntity
  8
0
 62
     7
420
 16777215
100
AcDbLine
 10
228.2399239151514
 20
278.5787525488113
 30
0.0
 11
228.2399239151514
 21
264.5777525488113
 31
0.0
  0
LINE
  5
2AB3
330
6F
100
AcDbEntity
  8
0
 62
     7
420
 16777215
100
AcDbLine
 10
228.2399239151514
 20
264.5777525488113
 30
0.0
 11
214.2409239151514
 21
264.5777525488113
 31
0.0
  0
LINE
  5
2AB4
330
6F
100
AcDbEntity
  8
0
 62
     7
420
 16777215
100
AcDbLine
 10
214.2409239151514
 20
264.5777525488113
 30
0.0
 11
214.2409239151514
 21
278.5787525488113
 31
0.0
  0
LINE
  5
2AB5
330
6F
100
AcDbEntity
  8
0
 62
     7
420
 16777215
100
AcDbLine
 10
233.2909239151514
 20
278.5787525488113
 30
0.0
 11
247.2899239151514
 21
278.5787525488113
 31
0.0
  0
LINE
  5
2AB6
330
6F
100
AcDbEntity
  8
0
 62
     7
420
 16777215
100
AcDbLine
 10
247.2899239151514
 20
278.5787525488113
 30
0.0
 11
247.2899239151514
 21
264.5777525488113
 31
0.0
  0
LINE
  5
2AB7
330
6F
100
AcDbEntity
  8
0
 62
     7
420
 16777215
100
AcDbLine
 10
247.2899239151514
 20
264.5777525488113
 30
0.0
 11
233.2909239151514
 21
264.5777525488113
 31
0.0
  0
LINE
  5
2AB8
330
6F
100
AcDbEntity
  8
0
 62
     7
420
 16777215
100
AcDbLine
 10
233.2909239151514
 20
264.5777525488113
 30
0.0
 11
233.2909239151514
 21
278.5787525488113
 31
0.0
  0
LINE
  5
2AB9
330
6F
100
AcDbEntity
  8
0
 62
     7
420
 16777215
100
AcDbLine
 10
252.3409239151514
 20
278.5787525488113
 30
0.0
 11
266.3399239151514
 21
278.5787525488113
 31
0.0
  0
LINE
  5
2ABA
330
6F
100
AcDbEntity
  8
0
 62
     7
420
 16777215
100
AcDbLine
 10
266.3399239151514
 20
278.5787525488113
 30
0.0
 11
266.3399239151514
 21
264.5777525488113
 31
0.0
  0
LINE
  5
2ABB
330
6F
100
AcDbEntity
  8
0
 62
     7
420
 16777215
100
AcDbLine
 10
266.3399239151514
 20
264.5777525488113
 30
0.0
 11
252.3409239151514
 21
264.5777525488113
 31
0.0
  0
LINE
  5
2ABC
330
6F
100
AcDbEntity
  8
0
 62
     7
420
 16777215
100
AcDbLine
 10
252.3409239151514
 20
264.5777525488113
 30
0.0
 11
252.3409239151514
 21
278.5787525488113
 31
0.0
  0
LINE
  5
2ABD
330
6F
100
AcDbEntity
  8
0
 62
     7
420
 16777215
100
AcDbLine
 10
299.9659239151514
 20
278.5787525488113
 30
0.0
 11
313.9649239151514
 21
278.5787525488113
 31
0.0
  0
LINE
  5
2ABE
330
6F
100
AcDbEntity
  8
0
 62
     7
420
 16777215
100
AcDbLine
 10
313.9649239151514
 20
278.5787525488113
 30
0.0
 11
313.9649239151514
 21
264.5777525488113
 31
0.0
  0
LINE
  5
2ABF
330
6F
100
AcDbEntity
  8
0
 62
     7
420
 16777215
100
AcDbLine
 10
313.9649239151514
 20
264.5777525488113
 30
0.0
 11
299.9659239151514
 21
264.5777525488113
 31
0.0
  0
LINE
  5
2AC0
330
6F
100
AcDbEntity
  8
0
 62
     7
420
 16777215
100
AcDbLine
 10
299.9659239151514
 20
264.5777525488113
 30
0.0
 11
299.9659239151514
 21
278.5787525488113
 31
0.0
  0
LINE
  5
2AC1
330
6F
100
AcDbEntity
  8
0
 62
     7
420
 16777215
100
AcDbLine
 10
261.8659239151514
 20
297.6287525488112
 30
0.0
 11
261.8659239151514
 21
283.6287525488113
 31
0.0
  0
LINE
  5
2AC2
330
6F
100
AcDbEntity
  8
0
 62
     7
420
 16777215
100
AcDbLine
 10
261.8659239151514
 20
283.6287525488113
 30
0.0
 11
263.1138239151515
 21
283.6287525488113
 31
0.0
  0
LINE
  5
2AC3
330
6F
100
AcDbEntity
  8
0
 62
     7
420
 16777215
100
AcDbLine
 10
269.8635239151514
 20
283.6287525488113
 30
0.0
 11
286.9140239151514
 21
283.6287525488113
 31
0.0
  0
LINE
  5
2AC4
330
6F
100
AcDbEntity
  8
0
 62
     7
420
 16777215
100
AcDbLine
 10
294.9149239151515
 20
283.6287525488113
 30
0.0
 11
294.9149239151515
 21
297.6287525488112
 31
0.0
  0
LINE
  5
2AC5
330
6F
100
AcDbEntity
  8
0
 62
     7
420
 16777215
100
AcDbLine
 10
147.5659239151514
 20
297.6287525488112
 30
0.0
 11
161.5649239151514
 21
297.6287525488112
 31
0.0
  0
LINE
  5
2AC6
330
6F
100
AcDbEntity
  8
0
 62
     7
420
 16777215
100
AcDbLine
 10
161.5649239151514
 20
297.6287525488112
 30
0.0
 11
161.5649239151514
 21
283.6277525488112
 31
0.0
  0
LINE
  5
2AC7
330
6F
100
AcDbEntity
  8
0
 62
     7
420
 16777215
100
AcDbLine
 10
161.5649239151514
 20
283.6277525488112
 30
0.0
 11
147.5659239151514
 21
283.6277525488112
 31
0.0
  0
LINE
  5
2AC8
330
6F
100
AcDbEntity
  8
0
 62
     7
420
 16777215
100
AcDbLine
 10
147.5659239151514
 20
283.6277525488112
 30
0.0
 11
147.5659239151514
 21
297.6287525488112
 31
0.0
  0
LINE
  5
2AC9
330
6F
100
AcDbEntity
  8
0
 62
     7
420
 16777215
100
AcDbLine
 10
166.6159239151513
 20
297.6287525488112
 30
0.0
 11
180.6149239151514
 21
297.6287525488112
 31
0.0
  0
LINE
  5
2ACA
330
6F
100
AcDbEntity
  8
0
 62
     7
420
 16777215
100
AcDbLine
 10
180.6149239151514
 20
297.6287525488112
 30
0.0
 11
180.6149239151514
 21
283.6277525488112
 31
0.0
  0
LINE
  5
2ACB
330
6F
100
AcDbEntity
  8
0
 62
     7
420
 16777215
100
AcDbLine
 10
180.6149239151514
 20
283.6277525488112
 30
0.0
 11
166.6159239151513
 21
283.6277525488112
 31
0.0
  0
LINE
  5
2ACC
330
6F
100
AcDbEntity
  8
0
 62
     7
420
 16777215
100
AcDbLine
 10
166.6159239151513
 20
283.6277525488112
 30
0.0
 11
166.6159239151513
 21
297.6287525488112
 31
0.0
  0
LINE
  5
2ACD
330
6F
100
AcDbEntity
  8
0
 62
     7
420
 16777215
100
AcDbLine
 10
185.6659239151514
 20
297.6287525488112
 30
0.0
 11
199.6649239151514
 21
297.6287525488112
 31
0.0
  0
LINE
  5
2ACE
330
6F
100
AcDbEntity
  8
0
 62
     7
420
 16777215
100
AcDbLine
 10
199.6649239151514
 20
297.6287525488112
 30
0.0
 11
199.6649239151514
 21
283.6277525488112
 31
0.0
  0
LINE
  5
2ACF
330
6F
100
AcDbEntity
  8
0
 62
     7
420
 16777215
100
AcDbLine
 10
199.6649239151514
 20
283.6277525488112
 30
0.0
 11
185.6659239151514
 21
283.6277525488112
 31
0.0
  0
LINE
  5
2AD0
330
6F
100
AcDbEntity
  8
0
 62
     7
420
 16777215
100
AcDbLine
 10
185.6659239151514
 20
283.6277525488112
 30
0.0
 11
185.6659239151514
 21
297.6287525488112
 31
0.0
  0
LINE
  5
2AD1
330
6F
100
AcDbEntity
  8
0
 62
     7
420
 16777215
100
AcDbLine
 10
204.7159239151514
 20
297.6287525488112
 30
0.0
 11
218.7149239151514
 21
297.6287525488112
 31
0.0
  0
LINE
  5
2AD2
330
6F
100
AcDbEntity
  8
0
 62
     7
420
 16777215
100
AcDbLine
 10
218.7149239151514
 20
297.6287525488112
 30
0.0
 11
218.7149239151514
 21
283.6277525488112
 31
0.0
  0
LINE
  5
2AD3
330
6F
100
AcDbEntity
  8
0
 62
     7
420
 16777215
100
AcDbLine
 10
218.7149239151514
 20
283.6277525488112
 30
0.0
 11
204.7159239151514
 21
283.6277525488112
 31
0.0
  0
LINE
  5
2AD4
330
6F
100
AcDbEntity
  8
0
 62
     7
420
 16777215
100
AcDbLine
 10
204.7159239151514
 20
283.6277525488112
 30
0.0
 11
204.7159239151514
 21
297.6287525488112
 31
0.0
  0
LINE
  5
2AD5
330
6F
100
AcDbEntity
  8
0
 62
     7
420
 16777215
100
AcDbLine
 10
223.7659239151515
 20
297.6287525488112
 30
0.0
 11
237.7649239151515
 21
297.6287525488112
 31
0.0
  0
LINE
  5
2AD6
330
6F
100
AcDbEntity
  8
0
 62
     7
420
 16777215
100
AcDbLine
 10
237.7649239151515
 20
297.6287525488112
 30
0.0
 11
237.7649239151515
 21
283.6277525488112
 31
0.0
  0
LINE
  5
2AD7
330
6F
100
AcDbEntity
  8
0
 62
     7
420
 16777215
100
AcDbLine
 10
237.7649239151515
 20
283.6277525488112
 30
0.0
 11
223.7659239151515
 21
283.6277525488112
 31
0.0
  0
LINE
  5
2AD8
330
6F
100
AcDbEntity
  8
0
 62
     7
420
 16777215
100
AcDbLine
 10
223.7659239151515
 20
283.6277525488112
 30
0.0
 11
223.7659239151515
 21
297.6287525488112
 31
0.0
  0
LINE
  5
2AD9
330
6F
100
AcDbEntity
  8
0
 62
     7
420
 16777215
100
AcDbLine
 10
242.8159239151514
 20
297.6287525488112
 30
0.0
 11
256.8149239151515
 21
297.6287525488112
 31
0.0
  0
LINE
  5
2ADA
330
6F
100
AcDbEntity
  8
0
 62
     7
420
 16777215
100
AcDbLine
 10
256.8149239151515
 20
297.6287525488112
 30
0.0
 11
256.8149239151515
 21
283.6277525488112
 31
0.0
  0
LINE
  5
2ADB
330
6F
100
AcDbEntity
  8
0
 62
     7
420
 16777215
100
AcDbLine
 10
256.8149239151515
 20
283.6277525488112
 30
0.0
 11
242.8159239151514
 21
283.6277525488112
 31
0.0
  0
LINE
  5
2ADC
330
6F
100
AcDbEntity
  8
0
 62
     7
420
 16777215
100
AcDbLine
 10
242.8159239151514
 20
283.6277525488112
 30
0.0
 11
242.8159239151514
 21
297.6287525488112
 31
0.0
  0
LINE
  5
2ADD
330
6F
100
AcDbEntity
  8
0
 62
     7
420
 16777215
100
AcDbLine
 10
299.9659239151514
 20
297.6287525488112
 30
0.0
 11
313.9649239151514
 21
297.6287525488112
 31
0.0
  0
LINE
  5
2ADE
330
6F
100
AcDbEntity
  8
0
 62
     7
420
 16777215
100
AcDbLine
 10
313.9649239151514
 20
297.6287525488112
 30
0.0
 11
313.9649239151514
 21
283.6277525488112
 31
0.0
  0
LINE
  5
2ADF
330
6F
100
AcDbEntity
  8
0
 62
     7
420
 16777215
100
AcDbLine
 10
313.9649239151514
 20
283.6277525488112
 30
0.0
 11
299.9659239151514
 21
283.6277525488112
 31
0.0
  0
LINE
  5
2AE0
330
6F
100
AcDbEntity
  8
0
 62
     7
420
 16777215
100
AcDbLine
 10
299.9659239151514
 20
283.6277525488112
 30
0.0
 11
299.9659239151514
 21
297.6287525488112
 31
0.0
  0
LINE
  5
2AE1
330
6F
100
AcDbEntity
  8
0
 62
     7
420
 16777215
100
AcDbLine
 10
147.5659239151514
 20
316.6787525488112
 30
0.0
 11
161.5649239151514
 21
316.6787525488112
 31
0.0
  0
LINE
  5
2AE2
330
6F
100
AcDbEntity
  8
0
 62
     7
420
 16777215
100
AcDbLine
 10
161.5649239151514
 20
316.6787525488112
 30
0.0
 11
161.5649239151514
 21
302.6777525488112
 31
0.0
  0
LINE
  5
2AE3
330
6F
100
AcDbEntity
  8
0
 62
     7
420
 16777215
100
AcDbLine
 10
161.5649239151514
 20
302.6777525488112
 30
0.0
 11
147.5659239151514
 21
302.6777525488112
 31
0.0
  0
LINE
  5
2AE4
330
6F
100
AcDbEntity
  8
0
 62
     7
420
 16777215
100
AcDbLine
 10
147.5659239151514
 20
302.6777525488112
 30
0.0
 11
147.5659239151514
 21
316.6787525488112
 31
0.0
  0
LINE
  5
2AE5
330
6F
100
AcDbEntity
  8
0
 62
     7
420
 16777215
100
AcDbLine
 10
166.6159239151513
 20
316.6787525488112
 30
0.0
 11
180.6149239151514
 21
316.6787525488112
 31
0.0
  0
LINE
  5
2AE6
330
6F
100
AcDbEntity
  8
0
 62
     7
420
 16777215
100
AcDbLine
 10
180.6149239151514
 20
316.6787525488112
 30
0.0
 11
180.6149239151514
 21
302.6777525488112
 31
0.0
  0
LINE
  5
2AE7
330
6F
100
AcDbEntity
  8
0
 62
     7
420
 16777215
100
AcDbLine
 10
180.6149239151514
 20
302.6777525488112
 30
0.0
 11
166.6159239151513
 21
302.6777525488112
 31
0.0
  0
LINE
  5
2AE8
330
6F
100
AcDbEntity
  8
0
 62
     7
420
 16777215
100
AcDbLine
 10
166.6159239151513
 20
302.6777525488112
 30
0.0
 11
166.6159239151513
 21
316.6787525488112
 31
0.0
  0
LINE
  5
2AE9
330
6F
100
AcDbEntity
  8
0
 62
     7
420
 16777215
100
AcDbLine
 10
185.6659239151514
 20
316.6787525488112
 30
0.0
 11
199.6649239151514
 21
316.6787525488112
 31
0.0
  0
LINE
  5
2AEA
330
6F
100
AcDbEntity
  8
0
 62
     7
420
 16777215
100
AcDbLine
 10
199.6649239151514
 20
316.6787525488112
 30
0.0
 11
199.6649239151514
 21
302.6777525488112
 31
0.0
  0
LINE
  5
2AEB
330
6F
100
AcDbEntity
  8
0
 62
     7
420
 16777215
100
AcDbLine
 10
199.6649239151514
 20
302.6777525488112
 30
0.0
 11
185.6659239151514
 21
302.6777525488112
 31
0.0
  0
LINE
  5
2AEC
330
6F
100
AcDbEntity
  8
0
 62
     7
420
 16777215
100
AcDbLine
 10
185.6659239151514
 20
302.6777525488112
 30
0.0
 11
185.6659239151514
 21
316.6787525488112
 31
0.0
  0
LINE
  5
2AED
330
6F
100
AcDbEntity
  8
0
 62
     7
420
 16777215
100
AcDbLine
 10
204.7159239151514
 20
316.6787525488112
 30
0.0
 11
218.7149239151514
 21
316.6787525488112
 31
0.0
  0
LINE
  5
2AEE
330
6F
100
AcDbEntity
  8
0
 62
     7
420
 16777215
100
AcDbLine
 10
218.7149239151514
 20
316.6787525488112
 30
0.0
 11
218.7149239151514
 21
302.6777525488112
 31
0.0
  0
LINE
  5
2AEF
330
6F
100
AcDbEntity
  8
0
 62
     7
420
 16777215
100
AcDbLine
 10
218.7149239151514
 20
302.6777525488112
 30
0.0
 11
204.7159239151514
 21
302.6777525488112
 31
0.0
  0
LINE
  5
2AF0
330
6F
100
AcDbEntity
  8
0
 62
     7
420
 16777215
100
AcDbLine
 10
204.7159239151514
 20
302.6777525488112
 30
0.0
 11
204.7159239151514
 21
316.6787525488112
 31
0.0
  0
LINE
  5
2AF1
330
6F
100
AcDbEntity
  8
0
 62
     7
420
 16777215
100
AcDbLine
 10
223.7659239151515
 20
316.6787525488112
 30
0.0
 11
237.7649239151515
 21
316.6787525488112
 31
0.0
  0
LINE
  5
2AF2
330
6F
100
AcDbEntity
  8
0
 62
     7
420
 16777215
100
AcDbLine
 10
237.7649239151515
 20
316.6787525488112
 30
0.0
 11
237.7649239151515
 21
302.6777525488112
 31
0.0
  0
LINE
  5
2AF3
330
6F
100
AcDbEntity
  8
0
 62
     7
420
 16777215
100
AcDbLine
 10
237.7649239151515
 20
302.6777525488112
 30
0.0
 11
223.7659239151515
 21
302.6777525488112
 31
0.0
  0
LINE
  5
2AF4
330
6F
100
AcDbEntity
  8
0
 62
     7
420
 16777215
100
AcDbLine
 10
223.7659239151515
 20
302.6777525488112
 30
0.0
 11
223.7659239151515
 21
316.6787525488112
 31
0.0
  0
LINE
  5
2AF5
330
6F
100
AcDbEntity
  8
0
 62
     7
420
 16777215
100
AcDbLine
 10
242.8159239151514
 20
316.6787525488112
 30
0.0
 11
256.8149239151515
 21
316.6787525488112
 31
0.0
  0
LINE
  5
2AF6
330
6F
100
AcDbEntity
  8
0
 62
     7
420
 16777215
100
AcDbLine
 10
256.8149239151515
 20
316.6787525488112
 30
0.0
 11
256.8149239151515
 21
302.6777525488112
 31
0.0
  0
LINE
  5
2AF7
330
6F
100
AcDbEntity
  8
0
 62
     7
420
 16777215
100
AcDbLine
 10
256.8149239151515
 20
302.6777525488112
 30
0.0
 11
242.8159239151514
 21
302.6777525488112
 31
0.0
  0
LINE
  5
2AF8
330
6F
100
AcDbEntity
  8
0
 62
     7
420
 16777215
100
AcDbLine
 10
242.8159239151514
 20
302.6777525488112
 30
0.0
 11
242.8159239151514
 21
316.6787525488112
 31
0.0
  0
LINE
  5
2AF9
330
6F
100
AcDbEntity
  8
0
 62
     7
420
 16777215
100
AcDbLine
 10
261.8659239151514
 20
316.6787525488112
 30
0.0
 11
275.8649239151514
 21
316.6787525488112
 31
0.0
  0
LINE
  5
2AFA
330
6F
100
AcDbEntity
  8
0
 62
     7
420
 16777215
100
AcDbLine
 10
275.8649239151514
 20
316.6787525488112
 30
0.0
 11
275.8649239151514
 21
302.6777525488112
 31
0.0
  0
LINE
  5
2AFB
330
6F
100
AcDbEntity
  8
0
 62
     7
420
 16777215
100
AcDbLine
 10
275.8649239151514
 20
302.6777525488112
 30
0.0
 11
261.8659239151514
 21
302.6777525488112
 31
0.0
  0
LINE
  5
2AFC
330
6F
100
AcDbEntity
  8
0
 62
     7
420
 16777215
100
AcDbLine
 10
261.8659239151514
 20
302.6777525488112
 30
0.0
 11
261.8659239151514
 21
316.6787525488112
 31
0.0
  0
LINE
  5
2AFD
330
6F
100
AcDbEntity
  8
0
 62
     7
420
 16777215
100
AcDbLine
 10
280.9159239151514
 20
316.6787525488112
 30
0.0
 11
294.9149239151515
 21
316.6787525488112
 31
0.0
  0
LINE
  5
2AFE
330
6F
100
AcDbEntity
  8
0
 62
     7
420
 16777215
100
AcDbLine
 10
294.9149239151515
 20
316.6787525488112
 30
0.0
 11
294.9149239151515
 21
302.6777525488112
 31
0.0
  0
LINE
  5
2AFF
330
6F
100
AcDbEntity
  8
0
 62
     7
420
 16777215
100
AcDbLine
 10
294.9149239151515
 20
302.6777525488112
 30
0.0
 11
280.9159239151514
 21
302.6777525488112
 31
0.0
  0
LINE
  5
2B00
330
6F
100
AcDbEntity
  8
0
 62
     7
420
 16777215
100
AcDbLine
 10
280.9159239151514
 20
302.6777525488112
 30
0.0
 11
280.9159239151514
 21
316.6787525488112
 31
0.0
  0
LINE
  5
2B01
330
6F
100
AcDbEntity
  8
0
 62
     7
420
 16777215
100
AcDbLine
 10
299.9659239151514
 20
316.6787525488112
 30
0.0
 11
313.9649239151514
 21
316.6787525488112
 31
0.0
  0
LINE
  5
2B02
330
6F
100
AcDbEntity
  8
0
 62
     7
420
 16777215
100
AcDbLine
 10
313.9649239151514
 20
316.6787525488112
 30
0.0
 11
313.9649239151514
 21
302.6777525488112
 31
0.0
  0
LINE
  5
2B03
330
6F
100
AcDbEntity
  8
0
 62
     7
420
 16777215
100
AcDbLine
 10
313.9649239151514
 20
302.6777525488112
 30
0.0
 11
299.9659239151514
 21
302.6777525488112
 31
0.0
  0
LINE
  5
2B04
330
6F
100
AcDbEntity
  8
0
 62
     7
420
 16777215
100
AcDbLine
 10
299.9659239151514
 20
302.6777525488112
 30
0.0
 11
299.9659239151514
 21
316.6787525488112
 31
0.0
  0
LINE
  5
2B05
330
6F
100
AcDbEntity
  8
0
  6
Continuous
 62
     7
420
 16777215
100
AcDbLine
 10
145.0409239151513
 20
280.8522525750632
 30
0.0
 11
145.0409239151513
 21
326.6787525488112
 31
0.0
  0
LINE
  5
2B06
330
6F
100
AcDbEntity
  8
0
  6
Continuous
 62
     7
420
 16777215
100
AcDbLine
 10
135.5154239151486
 20
262.3022525488111
 30
0.0
 11
135.5154239151513
 21
280.8522525750632
 31
0.0
  0
LINE
  5
2B07
330
6F
100
AcDbEntity
  8
0
  6
Continuous
 62
     7
420
 16777215
100
AcDbLine
 10
140.2774239151513
 20
242.7522525488111
 30
0.0
 11
140.2774239151513
 21
262.3022525488111
 31
0.0
  0
LINE
  5
2B08
330
6F
100
AcDbEntity
  8
0
  6
Continuous
 62
     7
420
 16777215
100
AcDbLine
 10
130.7524239151513
 20
224.2032525488112
 30
0.0
 11
130.7524239151512
 21
242.7522525488111
 31
0.0
  0
CIRCLE
  5
2B09
330
6F
100
AcDbEntity
  8
0
  6
Continuous
 62
     7
420
 16777215
100
AcDbCircle
 10
153.0039239151513
 20
322.9408987488114
 30
0.0
 40
1.5
  0
CIRCLE
  5
2B0A
330
6F
100
AcDbEntity
  8
0
  6
Continuous
 62
     7
420
 16777215
100
AcDbCircle
 10
153.0039239151513
 20
201.1640537488113
 30
0.0
 40
1.5
  0
CIRCLE
  5
2B0B
330
6F
100
AcDbEntity
  8
0
  6
Continuous
 62
     7
420
 16777215
100
AcDbCircle
 10
233.5374239151512
 20
322.9408987488114
 30
0.0
 40
1.5
  0
CIRCLE
  5
2B0C
330
6F
100
AcDbEntity
  8
0
  6
Continuous
 62
     7
420
 16777215
100
AcDbCircle
 10
233.2656350165082
 20
201.1640537488113
 30
0.0
 40
1.5
  0
CIRCLE
  5
2B0D
330
6F
100
AcDbEntity
  8
0
  6
Continuous
 62
     7
420
 16777215
100
AcDbCircle
 10
320.2284239151511
 20
322.9408987488114
 30
0.0
 40
1.5
  0
CIRCLE
  5
2B0E
330
6F
100
AcDbEntity
  8
0
  6
Continuous
 62
     7
420
 16777215
100
AcDbCircle
 10
320.2284239151511
 20
262.0524596488112
 30
0.0
 40
1.5
  0
CIRCLE
  5
2B0F
330
6F
100
AcDbEntity
  8
0
  6
Continuous
 62
     7
420
 16777215
100
AcDbCircle
 10
320.2284239151511
 20
201.1640537488113
 30
0.0
 40
1.5
  0
LINE
  5
2B10
330
6F
100
AcDbEntity
  8
0
  6
Continuous
 62
     7
420
 16777215
100
AcDbLine
 10
323.9659239151511
 20
326.6787525488112
 30
0.0
 11
145.0409239151513
 21
326.6787525488112
 31
0.0
  0
LINE
  5
2B11
330
6F
100
AcDbEntity
  8
0
  6
Continuous
 62
     7
420
 16777215
100
AcDbLine
 10
323.9659239151511
 20
326.6787525488112
 30
0.0
 11
323.9659239151508
 21
197.4267525488112
 31
0.0
  0
LINE
  5
2B12
330
6F
100
AcDbEntity
  8
0
  6
Continuous
 62
     7
420
 16777215
100
AcDbLine
 10
140.2759739151519
 20
224.2032525488112
 30
0.0
 11
140.2759739151519
 21
197.4267525488112
 31
0.0
  0
LINE
  5
2B13
330
6F
100
AcDbEntity
  8
0
  6
Continuous
 62
     7
420
 16777215
100
AcDbLine
 10
135.5154239151513
 20
280.8522525750632
 30
0.0
 11
145.0409239151513
 21
280.8522525750632
 31
0.0
  0
LINE
  5
2B14
330
6F
100
AcDbEntity
  8
0
  6
Continuous
 62
     7
420
 16777215
100
AcDbLine
 10
135.5154239151486
 20
262.3022525488111
 30
0.0
 11
140.2774239151513
 21
262.3022525488111
 31
0.0
  0
LINE
  5
2B15
330
6F
100
AcDbEntity
  8
0
  6
Continuous
 62
     7
420
 16777215
100
AcDbLine
 10
130.7524239151513
 20
242.7522525488111
 30
0.0
 11
140.2774239151513
 21
242.7522525488111
 31
0.0
  0
LINE
  5
2B16
330
6F
100
AcDbEntity
  8
0
  6
Continuous
 62
     7
420
 16777215
100
AcDbLine
 10
130.7524239151513
 20
224.2032525488112
 30
0.0
 11
140.2759739151519
 21
224.2032525488112
 31
0.0
  0
LINE
  5
2B17
330
6F
100
AcDbEntity
  8
0
  6
Continuous
 62
     7
420
 16777215
100
AcDbLine
 10
197.5719239151519
 20
221.4298525488112
 30
0.0
 11
197.5719239151519
 21
207.4289525488111
 31
0.0
  0
LINE
  5
2B18
330
6F
100
AcDbEntity
  8
0
  6
Continuous
 62
     7
420
 16777215
100
AcDbLine
 10
254.4339239151534
 20
221.4298525488112
 30
0.0
 11
254.4339239151534
 21
207.4289525488111
 31
0.0
  0
LINE
  5
2B19
330
6F
100
AcDbEntity
  8
0
  6
Continuous
 62
     7
420
 16777215
100
AcDbLine
 10
197.5719239151519
 20
221.4298525488112
 30
0.0
 11
213.9529239151514
 21
221.4298525488112
 31
0.0
  0
LINE
  5
2B1A
330
6F
100
AcDbEntity
  8
0
  6
Continuous
 62
     7
420
 16777215
100
AcDbLine
 10
197.5719239151519
 20
207.4289525488111
 30
0.0
 11
213.9529239151514
 21
207.4277525488114
 31
0.0
  0
LINE
  5
2B1B
330
6F
100
AcDbEntity
  8
0
  6
Continuous
 62
     7
420
 16777215
100
AcDbLine
 10
219.003923915152
 20
221.4298525488112
 30
0.0
 11
219.003923915152
 21
207.4289525488111
 31
0.0
  0
LINE
  5
2B1C
330
6F
100
AcDbEntity
  8
0
  6
Continuous
 62
     7
420
 16777215
100
AcDbLine
 10
219.003923915152
 20
207.4289525488111
 30
0.0
 11
254.4339239151534
 21
207.4289525488111
 31
0.0
  0
LINE
  5
2B1D
330
6F
100
AcDbEntity
  8
0
  6
Continuous
 62
     7
420
 16777215
100
AcDbLine
 10
140.2759739151519
 20
197.4267525488112
 30
0.0
 11
323.9659239151508
 21
197.4267525488112
 31
0.0
  0
LINE
  5
2B1E
330
6F
100
AcDbEntity
  8
0
  6
Continuous
 62
     7
420
 16777215
100
AcDbLine
 10
263.1138239151515
 20
282.8777525488113
 30
0.0
 11
263.1138239151515
 21
283.6287525488113
 31
0.0
  0
LINE
  5
2B1F
330
6F
100
AcDbEntity
  8
0
  6
Continuous
 62
     7
420
 16777215
100
AcDbLine
 10
286.9140239151514
 20
283.6287525488113
 30
0.0
 11
286.9140239151514
 21
282.8777525488113
 31
0.0
  0
LINE
  5
2B20
330
6F
100
AcDbEntity
  8
0
  6
Continuous
 62
     7
420
 16777215
100
AcDbLine
 10
293.6637239151514
 20
282.8777525488113
 30
0.0
 11
293.6637239151514
 21
283.6287525488113
 31
0.0
  0
LINE
  5
2B21
330
6F
100
AcDbEntity
  8
0
  6
Continuous
 62
     7
420
 16777215
100
AcDbLine
 10
269.8635239151514
 20
283.6287525488113
 30
0.0
 11
269.8635239151514
 21
282.8777525488113
 31
0.0
  0
LINE
  5
2B22
330
6F
100
AcDbEntity
  8
0
  6
Continuous
 62
     7
420
 16777215
100
AcDbLine
 10
294.9149239151515
 20
283.6287525488113
 30
0.0
 11
293.6637239151514
 21
283.6287525488113
 31
0.0
  0
LINE
  5
2B23
330
6F
100
AcDbEntity
  8
0
  6
Continuous
 62
     7
420
 16777215
100
AcDbLine
 10
263.1138239151515
 20
282.8777525488113
 30
0.0
 11
269.8635239151514
 21
282.8777525488113
 31
0.0
  0
LINE
  5
2B24
330
6F
100
AcDbEntity
  8
0
  6
Continuous
 62
     7
420
 16777215
100
AcDbLine
 10
269.8668239151515
 20
298.3797525488112
 30
0.0
 11
263.1171239151515
 21
298.3797525488112
 31
0.0
  0
LINE
  5
2B25
330
6F
100
AcDbEntity
  8
0
 62
     7
420
 16777215
100
AcDbLine
 10
294.9149239151515
 20
297.6287525488112
 30
0.0
 11
293.6670239151514
 21
297.6287525488112
 31
0.0
  0
LINE
  5
2B26
330
6F
100
AcDbEntity
  8
0
 62
     7
420
 16777215
100
AcDbLine
 10
286.9173239151514
 20
297.6287525488112
 30
0.0
 11
269.8668239151515
 21
297.6287525488112
 31
0.0
  0
LINE
  5
2B27
330
6F
100
AcDbEntity
  8
0
  6
Continuous
 62
     7
420
 16777215
100
AcDbLine
 10
293.6670239151514
 20
298.3797525488112
 30
0.0
 11
293.6670239151514
 21
297.6287525488112
 31
0.0
  0
LINE
  5
2B28
330
6F
100
AcDbEntity
  8
0
  6
Continuous
 62
     7
420
 16777215
100
AcDbLine
 10
269.8668239151515
 20
297.6287525488112
 30
0.0
 11
269.8668239151515
 21
298.3797525488112
 31
0.0
  0
LINE
  5
2B29
330
6F
100
AcDbEntity
  8
0
  6
Continuous
 62
     7
420
 16777215
100
AcDbLine
 10
263.1171239151515
 20
298.3797525488112
 30
0.0
 11
263.1171239151515
 21
297.6287525488112
 31
0.0
  0
LINE
  5
2B2A
330
6F
100
AcDbEntity
  8
0
  6
Continuous
 62
     7
420
 16777215
100
AcDbLine
 10
286.9173239151514
 20
297.6287525488112
 30
0.0
 11
286.9173239151514
 21
298.3797525488112
 31
0.0
  0
LINE
  5
2B2B
330
6F
100
AcDbEntity
  8
0
  6
Continuous
 62
     7
420
 16777215
100
AcDbLine
 10
261.8659239151514
 20
297.6287525488112
 30
0.0
 11
263.1171239151515
 21
297.6287525488112
 31
0.0
  0
LINE
  5
2B2C
330
6F
100
AcDbEntity
  8
0
  6
Continuous
 62
     7
420
 16777215
100
AcDbLine
 10
293.6670239151514
 20
298.3797525488112
 30
0.0
 11
286.9173239151514
 21
298.3797525488112
 31
0.0
  0
LINE
  5
2B2D
330
6F
100
AcDbEntity
  8
0
  6
Continuous
 62
     7
420
 16777215
100
AcDbLine
 10
159.4719239151513
 20
221.4298525488112
 30
0.0
 11
159.4719239151513
 21
207.4287525488112
 31
0.0
  0
LINE
  5
2B2E
330
6F
100
AcDbEntity
  8
0
 62
     7
420
 16777215
100
AcDbLine
 10
151.1969239151514
 20
206.6791525488113
 30
0.0
 11
157.9469239151514
 21
206.6791525488113
 31
0.0
  0
LINE
  5
2B2F
330
6F
100
AcDbEntity
  8
0
 62
     7
420
 16777215
100
AcDbLine
 10
174.9969239151514
 20
206.6791525488113
 30
0.0
 11
181.7459239151513
 21
206.6791525488113
 31
0.0
  0
LINE
  5
2B30
330
6F
100
AcDbEntity
  8
0
  6
Continuous
 62
     7
420
 16777215
100
AcDbLine
 10
257.1029239151514
 20
259.5284525488114
 30
0.0
 11
260.7349239151512
 21
259.5284525488114
 31
0.0
  0
LINE
  5
2B31
330
6F
100
AcDbEntity
  8
0
  6
Continuous
 62
     7
420
 16777215
100
AcDbLine
 10
260.7349239151512
 20
259.5284525488114
 30
0.0
 11
260.7349239151512
 21
260.2763525488112
 31
0.0
  0
LINE
  5
2B32
330
6F
100
AcDbEntity
  8
0
  6
Continuous
 62
     7
420
 16777215
100
AcDbLine
 10
260.7349239151512
 20
260.2763525488112
 30
0.0
 11
267.4839239151511
 21
260.2763525488112
 31
0.0
  0
LINE
  5
2B33
330
6F
100
AcDbEntity
  8
0
  6
Continuous
 62
     7
420
 16777215
100
AcDbLine
 10
267.4839239151511
 20
260.2763525488112
 30
0.0
 11
267.4839721658301
 21
259.5284525488114
 31
0.0
  0
LINE
  5
2B34
330
6F
100
AcDbEntity
  8
0
  6
Continuous
 62
     7
420
 16777215
100
AcDbLine
 10
283.0089239151512
 20
245.5260525488111
 30
0.0
 11
267.4848754193156
 21
245.5277525488114
 31
0.0
  0
LINE
  5
2B35
330
6F
100
AcDbEntity
  8
0
  6
Continuous
 62
     7
420
 16777215
100
AcDbLine
 10
267.4848754193156
 20
245.5277525488114
 30
0.0
 11
267.4849239151512
 21
244.7760525488111
 31
0.0
  0
LINE
  5
2B36
330
6F
100
AcDbEntity
  8
0
  6
Continuous
 62
     7
420
 16777215
100
AcDbLine
 10
267.4849239151512
 20
244.7760525488111
 30
0.0
 11
260.7349239151512
 21
244.7760525488111
 31
0.0
  0
LINE
  5
2B37
330
6F
100
AcDbEntity
  8
0
  6
Continuous
 62
     7
420
 16777215
100
AcDbLine
 10
260.7349239151512
 20
244.7760525488111
 30
0.0
 11
260.7349239151512
 21
245.5277525488114
 31
0.0
  0
LINE
  5
2B38
330
6F
100
AcDbEntity
  8
0
  6
Continuous
 62
     7
420
 16777215
100
AcDbLine
 10
260.7349239151512
 20
245.5277525488114
 30
0.0
 11
257.1029239151514
 21
245.5277525488114
 31
0.0
  0
LINE
  5
2B39
330
6F
100
AcDbEntity
  8
0
  6
Continuous
 62
     7
420
 16777215
100
AcDbLine
 10
257.1029239151514
 20
245.5277525488114
 30
0.0
 11
257.1029239151514
 21
259.5284525488114
 31
0.0
  0
LINE
  5
2B3A
330
6F
100
AcDbEntity
  8
0
  6
Continuous
 62
     7
420
 16777215
100
AcDbLine
 10
276.1529239151514
 20
278.5787525488113
 30
0.0
 11
290.1539239151514
 21
278.5787525488113
 31
0.0
  0
LINE
  5
2B3B
330
6F
100
AcDbEntity
  8
0
  6
Continuous
 62
     7
420
 16777215
100
AcDbLine
 10
292.5339239151514
 20
270.5797525488113
 30
0.0
 11
292.5339239151514
 21
253.5297041884569
 31
0.0
  0
LINE
  5
2B3C
330
6F
100
AcDbEntity
  8
0
  6
Continuous
 62
     7
420
 16777215
100
AcDbLine
 10
292.5339239151514
 20
253.5297041884569
 30
0.0
 11
293.2835239151513
 21
253.5297525488113
 31
0.0
  0
LINE
  5
2B3D
330
6F
100
AcDbEntity
  8
0
  6
Continuous
 62
     7
420
 16777215
100
AcDbLine
 10
293.2835239151513
 20
253.5297525488113
 30
0.0
 11
293.2835239151513
 21
246.7797525488113
 31
0.0
  0
LINE
  5
2B3E
330
6F
100
AcDbEntity
  8
0
  6
Continuous
 62
     7
420
 16777215
100
AcDbLine
 10
293.2835239151513
 20
246.7797525488113
 30
0.0
 11
291.2839239151511
 21
246.7797525488113
 31
0.0
  0
LINE
  5
2B3F
330
6F
100
AcDbEntity
  8
0
  6
Continuous
 62
     7
420
 16777215
100
AcDbLine
 10
291.2839239151511
 20
246.7797525488113
 30
0.0
 11
291.2839239151511
 21
244.7760525488111
 31
0.0
  0
LINE
  5
2B40
330
6F
100
AcDbEntity
  8
0
  6
Continuous
 62
     7
420
 16777215
100
AcDbLine
 10
291.2839239151511
 20
244.7760525488111
 30
0.0
 11
284.5349239151513
 21
244.7760525488111
 31
0.0
  0
LINE
  5
2B41
330
6F
100
AcDbEntity
  8
0
  6
Continuous
 62
     7
420
 16777215
100
AcDbLine
 10
284.5349239151513
 20
244.7760525488111
 30
0.0
 11
284.5349239151513
 21
245.5258854403407
 31
0.0
  0
LINE
  5
2B42
330
6F
100
AcDbEntity
  8
0
  6
Continuous
 62
     7
420
 16777215
100
AcDbLine
 10
284.5349239151513
 20
245.5258854403407
 30
0.0
 11
283.0089239151512
 21
245.5256525488112
 31
0.0
  0
LINE
  5
2B43
330
6F
100
AcDbEntity
  8
0
  6
Continuous
 62
     7
420
 16777215
100
AcDbLine
 10
276.1529239151514
 20
278.5787525488113
 30
0.0
 11
276.1529239151514
 21
264.5787525488113
 31
0.0
  0
LINE
  5
2B44
330
6F
100
AcDbEntity
  8
0
  6
Continuous
 62
     7
420
 16777215
100
AcDbLine
 10
290.1539239151514
 20
277.3287525488113
 30
0.0
 11
293.2835239151513
 21
277.3287525488113
 31
0.0
  0
LINE
  5
2B45
330
6F
100
AcDbEntity
  8
0
  6
Continuous
 62
     7
420
 16777215
100
AcDbLine
 10
293.2835239151513
 20
277.3287525488113
 30
0.0
 11
293.2835239151513
 21
270.5797525488113
 31
0.0
  0
LINE
  5
2B46
330
6F
100
AcDbEntity
  8
0
  6
Continuous
 62
     7
420
 16777215
100
AcDbLine
 10
293.2835239151513
 20
270.5797525488113
 30
0.0
 11
292.5339239151514
 21
270.5797525488113
 31
0.0
  0
LINE
  5
2B47
330
6F
100
AcDbEntity
  8
0
 62
     7
420
 16777215
100
AcDbLine
 10
283.0089239151512
 20
245.5260525488111
 30
0.0
 11
269.0089239151512
 21
245.5260525488111
 31
0.0
  0
LINE
  5
2B48
330
6F
100
AcDbEntity
  8
0
  6
Continuous
 62
     7
420
 16777215
100
AcDbLine
 10
290.1539239151514
 20
278.5787525488113
 30
0.0
 11
290.1539239151514
 21
277.3287525488113
 31
0.0
  0
LINE
  5
2B49
330
6F
100
AcDbEntity
  8
0
  6
Continuous
 62
     7
420
 16777215
100
AcDbLine
 10
276.1529239151514
 20
264.5787525488113
 30
0.0
 11
278.5339239151514
 21
264.5787525488113
 31
0.0
  0
LINE
  5
2B4A
330
6F
100
AcDbEntity
  8
0
  6
Continuous
 62
     7
420
 16777215
100
AcDbLine
 10
278.5339239151514
 20
264.5787525488113
 30
0.0
 11
278.5339239151514
 21
259.5284525488114
 31
0.0
  0
LINE
  5
2B4B
330
6F
100
AcDbEntity
  8
0
  6
Continuous
 62
     7
420
 16777215
100
AcDbLine
 10
278.5339239151514
 20
259.5284525488114
 30
0.0
 11
267.4839721658301
 21
259.5284525488114
 31
0.0
  0
CIRCLE
  5
2B4C
330
6F
100
AcDbEntity
  8
0
  6
Continuous
 62
     7
420
 16777215
100
AcDbCircle
 10
23.69501606717211
 20
322.9408991343455
 30
0.0
 40
1.5
  0
CIRCLE
  5
2B4D
330
6F
100
AcDbEntity
  8
0
  6
Continuous
 62
     7
420
 16777215
100
AcDbCircle
 10
197.343423915151
 20
322.9408987488114
 30
0.0
 40
1.5
  0
ENDSEC
  0
SECTION
  2
OBJECTS
  0
DICTIONARY
  5
C
330
0
100
AcDbDictionary
281
     1
  3
ACAD_BACKGROUND
350
2622
  3
ACAD_CIP_PREVIOUS_PRODUCT_INFO
350
346
  3
ACAD_COLOR
350
62
  3
ACAD_DETAILVIEWSTYLE
350
69
  3
ACAD_GROUP
350
D
  3
ACAD_LAYOUT
350
61
  3
ACAD_MATERIAL
350
10
  3
ACAD_MLEADERSTYLE
350
65
  3
ACAD_MLINESTYLE
350
5E
  3
ACAD_PLOTSETTINGS
350
60
  3
ACAD_PLOTSTYLENAME
350
E
  3
ACAD_SCALELIST
350
42
  3
ACAD_SECTIONVIEWSTYLE
350
67
  3
ACAD_TABLESTYLE
350
63
  3
ACAD_VISUALSTYLE
350
29
  3
ACDB_RECOMPOSE_DATA
350
2B5E
  3
AcDbVariableDictionary
350
24D3
  3
AcDsDecomposeData
350
2B64
  0
DICTIONARY
  5
348
330
2
100
AcDbDictionary
280
     1
281
     1
  3
ACAD_LAYERSTATES
360
349
  0
DICTIONARY
  5
F1C
330
54
100
AcDbDictionary
280
     1
281
     1
  3
ADSK_XREC_LAYER_RECONCILED
360
F1D
  0
DICTIONARY
  5
ED9
330
6F
100
AcDbDictionary
280
     1
281
     1
  3
ACAD_SORTENTS
360
EDA
  0
DICTIONARY
  5
F32
330
F2D
100
AcDbDictionary
280
     1
281
     1
  3
ACAD_SORTENTS
360
F33
  0
DICTIONARY
  5
10CF
330
10C2
100
AcDbDictionary
280
     1
281
     1
  3
ACAD_SORTENTS
360
10D0
  0
DICTIONARY
  5
1807
330
17EE
100
AcDbDictionary
280
     1
281
     1
  3
ACAD_SORTENTS
360
1808
  0
DICTIONARY
  5
1819
330
180B
100
AcDbDictionary
280
     1
281
     1
  3
ACAD_SORTENTS
360
181A
  0
DICTIONARY
  5
1882
330
1869
100
AcDbDictionary
280
     1
281
     1
  3
ACAD_SORTENTS
360
1883
  0
DICTIONARY
  5
2025
330
2020
100
AcDbDictionary
280
     1
281
     1
  3
ACAD_SORTENTS
360
2026
  0
DICTIONARY
  5
227C
330
205B
100
AcDbDictionary
280
     1
281
     1
  3
ACAD_SORTENTS
360
227D
  0
DICTIONARY
  5
27A2
330
27A0
100
AcDbDictionary
280
     1
281
     1
  3
ACAD_SORTENTS
360
27A3
  0
DICTIONARY
  5
2622
102
{ACAD_REACTORS
330
C
102
}
330
C
100
AcDbDictionary
281
     1
  0
XRECORD
  5
346
102
{ACAD_REACTORS
330
C
102
}
330
C
100
AcDbXrecord
280
     1
300
ACD
300
2017
300
ACD_F_S
  0
DICTIONARY
  5
62
102
{ACAD_REACTORS
330
C
102
}
330
C
100
AcDbDictionary
281
     1
  0
DICTIONARY
  5
69
102
{ACAD_REACTORS
330
C
102
}
330
C
100
AcDbDictionary
281
     1
  3
Imperial24
350
6A
  0
DICTIONARY
  5
D
102
{ACAD_REACTORS
330
C
102
}
330
C
100
AcDbDictionary
281
     1
  0
DICTIONARY
  5
61
102
{ACAD_REACTORS
330
C
102
}
330
C
100
AcDbDictionary
281
     1
  3
Layout1
350
6E
  3
Model
350
72
  0
DICTIONARY
  5
10
102
{ACAD_REACTORS
330
C
102
}
330
C
100
AcDbDictionary
281
     1
  3
ByBlock
350
19
  3
ByLayer
350
11
  3
Global
350
21
  0
DICTIONARY
  5
65
102
{ACAD_REACTORS
330
C
102
}
330
C
100
AcDbDictionary
281
     1
  3
Standard
350
66
  0
DICTIONARY
  5
5E
102
{ACAD_REACTORS
330
C
102
}
330
C
100
AcDbDictionary
281
     1
  3
Standard
350
5F
  0
DICTIONARY
  5
60
102
{ACAD_REACTORS
330
C
102
}
330
C
100
AcDbDictionary
281
     1
  0
ACDBDICTIONARYWDFLT
  5
E
102
{ACAD_REACTORS
330
C
102
}
330
C
100
AcDbDictionary
281
     1
  3
Normal
350
F
100
AcDbDictionaryWithDefault
340
F
  0
DICTIONARY
  5
42
102
{ACAD_REACTORS
330
C
102
}
330
C
100
AcDbDictionary
281
     1
  3
A0
350
43
  3
A1
350
44
  3
A2
350
45
  3
A3
350
46
  3
A4
350
47
  3
A5
350
48
  3
A6
350
49
  3
A7
350
4A
  3
A8
350
4B
  3
A9
350
4C
  3
B0
350
4D
  3
B1
350
4E
  3
B2
350
4F
  3
B3
350
50
  3
B4
350
51
  3
B5
350
52
  3
B6
350
53
  0
DICTIONARY
  5
67
102
{ACAD_REACTORS
330
C
102
}
330
C
100
AcDbDictionary
281
     1
  3
Imperial24
350
68
  0
DICTIONARY
  5
63
102
{ACAD_REACTORS
330
C
102
}
330
C
100
AcDbDictionary
281
     1
  3
Standard
350
64
  0
DICTIONARY
  5
29
102
{ACAD_REACTORS
330
C
102
}
330
C
100
AcDbDictionary
281
     1
  3
2dWireframe
350
2F
  3
Basic
350
2E
  3
Brighten
350
35
  3
ColorChange
350
39
  3
Conceptual
350
32
  3
Dim
350
34
  3
EdgeColorOff
350
41
  3
Facepattern
350
38
  3
Flat
350
2A
  3
FlatWithEdges
350
2B
  3
Gouraud
350
2C
  3
GouraudWithEdges
350
2D
  3
Hidden
350
31
  3
JitterOff
350
3F
  3
Linepattern
350
37
  3
OverhangOff
350
40
  3
Realistic
350
33
  3
Shaded
350
3E
  3
Shaded with edges
350
3D
  3
Shades of Gray
350
3A
  3
Sketchy
350
3B
  3
Thicken
350
36
  3
Wireframe
350
30
  3
X-Ray
350
3C
  0
XRECORD
  5
2B5E
102
{ACAD_REACTORS
330
C
102
}
330
C
100
AcDbXrecord
280
     1
 90
        1
330
64
  0
DICTIONARY
  5
24D3
102
{ACAD_REACTORS
330
C
102
}
330
C
100
AcDbDictionary
281
     1
  3
CANNOSCALE
350
24D9
  3
CMLEADERSTYLE
350
24D5
  3
CTABLESTYLE
350
24D4
  3
CVIEWDETAILSTYLE
350
24D6
  3
CVIEWSECTIONSTYLE
350
24D7
  3
LAYEREVAL
350
24DB
  3
LAYERNOTIFY
350
24DC
  3
LIGHTINGUNITS
350
24DA
  3
MSLTSCALE
350
24D8
  0
DICTIONARY
  5
2B64
102
{ACAD_REACTORS
330
C
102
}
330
C
100
AcDbDictionary
281
     1
  3
AcDsRecords
350
2B66
  3
AcDsSchemas
350
2B65
1001
ACAD
1070
     2
  0
DICTIONARY
  5
349
102
{ACAD_REACTORS
330
348
102
}
330
348
100
AcDbDictionary
281
     1
  0
XRECORD
  5
F1D
102
{ACAD_REACTORS
330
F1C
102
}
330
F1C
100
AcDbXrecord
280
     1
290
     1
  0
SORTENTSTABLE
  5
EDA
102
{ACAD_REACTORS
330
ED9
102
}
330
ED9
100
AcDbSortentsTable
330
6F
  0
SORTENTSTABLE
  5
F33
102
{ACAD_REACTORS
330
F32
102
}
330
F32
100
AcDbSortentsTable
330
F2D
  0
SORTENTSTABLE
  5
10D0
102
{ACAD_REACTORS
330
10CF
102
}
330
10CF
100
AcDbSortentsTable
330
10C2
  0
SORTENTSTABLE
  5
1808
102
{ACAD_REACTORS
330
1807
102
}
330
1807
100
AcDbSortentsTable
330
17EE
  0
SORTENTSTABLE
  5
181A
102
{ACAD_REACTORS
330
1819
102
}
330
1819
100
AcDbSortentsTable
330
180B
  0
SORTENTSTABLE
  5
1883
102
{ACAD_REACTORS
330
1882
102
}
330
1882
100
AcDbSortentsTable
330
1869
  0
SORTENTSTABLE
  5
2026
102
{ACAD_REACTORS
330
2025
102
}
330
2025
100
AcDbSortentsTable
330
2020
  0
SORTENTSTABLE
  5
227D
102
{ACAD_REACTORS
330
227C
102
}
330
227C
100
AcDbSortentsTable
330
205B
  0
SORTENTSTABLE
  5
27A3
102
{ACAD_REACTORS
330
27A2
102
}
330
27A2
100
AcDbSortentsTable
330
27A0
  0
ACDBDETAILVIEWSTYLE
  5
6A
102
{ACAD_XDICTIONARY
360
24D0
102
}
102
{ACAD_REACTORS
330
69
102
}
330
69
100
AcDbModelDocViewStyle
 70
     0
  3
Imperial24
290
     0
100
AcDbDetailViewStyle
 70
     0
 71
     0
 90
        3
 71
     1
340
55
 62
   256
 40
0.24
340
0
 62
   256
 40
0.24
300

 40
0.36
280
     3
 71
     2
340
5C
 90
       25
 62
   256
 71
     3
340
55
 62
   256
 40
0.24
 90
        1
 40
0.75
 90
        1
300
%<\AcVar ViewType \f "%tc1">% %<\AcVar ViewDetailId>%\PSCALE %<\AcVar ViewScale \f "%sn">%
 71
     4
340
5C
 90
       25
 62
   256
340
5C
 90
       25
 62
   256
280
     0
  0
LAYOUT
  5
6E
102
{ACAD_REACTORS
330
61
102
}
330
61
100
AcDbPlotSettings
  1

  2
Canon MX470 series Printer WS
  4

  6

 40
0.0
 41
0.0
 42
0.0
 43
0.0
 44
0.0
 45
0.0
 46
0.0
 47
0.0
 48
0.0
 49
0.0
140
0.0
141
0.0
142
1.0
143
1.0
 70
   688
 72
     0
 73
     0
 74
     5
  7

 75
    16
147
1.0
 76
     0
 77
     2
 78
   300
148
0.0
149
0.0
100
AcDbLayout
  1
Layout1
 70
     1
 71
     1
 10
0.0
 20
0.0
 11
12.0
 21
9.0
 12
0.0
 22
0.0
 32
0.0
 14
1.000000000000000E+20
 24
1.000000000000000E+20
 34
1.000000000000000E+20
 15
-1.000000000000000E+20
 25
-1.000000000000000E+20
 35
-1.000000000000000E+20
146
0.0
 13
0.0
 23
0.0
 33
0.0
 16
1.0
 26
0.0
 36
0.0
 17
0.0
 27
1.0
 37
0.0
 76
     0
330
6B
  0
LAYOUT
  5
72
102
{ACAD_REACTORS
330
61
102
}
330
61
100
AcDbPlotSettings
  1

  2
Canon MX470 series Printer WS
  4

  6

 40
0.0
 41
0.0
 42
0.0
 43
0.0
 44
0.0
 45
0.0
 46
0.0
 47
0.0
 48
0.0
 49
0.0
140
0.0
141
0.0
142
1.0
143
1.0
 70
  1712
 72
     0
 73
     0
 74
     0
  7

 75
     0
147
1.0
 76
     0
 77
     2
 78
   300
148
0.0
149
0.0
100
AcDbLayout
  1
Model
 70
     1
 71
     0
 10
0.0
 20
0.0
 11
12.0
 21
9.0
 12
0.0
 22
0.0
 32
0.0
 14
0.0
 24
0.0
 34
0.0
 15
0.0
 25
0.0
 35
0.0
146
0.0
 13
0.0
 23
0.0
 33
0.0
 16
1.0
 26
0.0
 36
0.0
 17
0.0
 27
1.0
 37
0.0
 76
     0
330
6F
331
74
  0
MATERIAL
  5
19
102
{ACAD_XDICTIONARY
360
1A
102
}
102
{ACAD_REACTORS
330
10
102
}
330
10
100
AcDbMaterial
  1
ByBlock
 72
     0
 43
0.0208333333333333
 43
0.0
 43
0.0
 43
0.0
 43
0.0
 43
0.0208333333333333
 43
0.0
 43
0.0
 43
0.0
 43
0.0
 43
1.0
 43
0.0
 43
0.0
 43
0.0
 43
0.0
 43
1.0
 77
     0
 47
0.0208333333333333
 47
0.0
 47
0.0
 47
0.0
 47
0.0
 47
0.0208333333333333
 47
0.0
 47
0.0
 47
0.0
 47
0.0
 47
1.0
 47
0.0
 47
0.0
 47
0.0
 47
0.0
 47
1.0
171
     0
 49
0.0208333333333333
 49
0.0
 49
0.0
 49
0.0
 49
0.0
 49
0.0208333333333333
 49
0.0
 49
0.0
 49
0.0
 49
0.0
 49
1.0
 49
0.0
 49
0.0
 49
0.0
 49
0.0
 49
1.0
175
     0
142
0.0208333333333333
142
0.0
142
0.0
142
0.0
142
0.0
142
0.0208333333333333
142
0.0
142
0.0
142
0.0
142
0.0
142
1.0
142
0.0
142
0.0
142
0.0
142
0.0
142
1.0
179
     0
144
0.0208333333333333
144
0.0
144
0.0
144
0.0
144
0.0
144
0.0208333333333333
144
0.0
144
0.0
144
0.0
144
0.0
144
1.0
144
0.0
144
0.0
144
0.0
144
0.0
144
1.0
147
0.0208333333333333
147
0.0
147
0.0
147
0.0
147
0.0
147
0.0208333333333333
147
0.0
147
0.0
147
0.0
147
0.0
147
1.0
147
0.0
147
0.0
147
0.0
147
0.0
147
1.0
  0
MATERIAL
  5
11
102
{ACAD_XDICTIONARY
360
12
102
}
102
{ACAD_REACTORS
330
10
102
}
330
10
100
AcDbMaterial
  1
ByLayer
 72
     0
 43
0.0208333333333333
 43
0.0
 43
0.0
 43
0.0
 43
0.0
 43
0.0208333333333333
 43
0.0
 43
0.0
 43
0.0
 43
0.0
 43
1.0
 43
0.0
 43
0.0
 43
0.0
 43
0.0
 43
1.0
 77
     0
 47
0.0208333333333333
 47
0.0
 47
0.0
 47
0.0
 47
0.0
 47
0.0208333333333333
 47
0.0
 47
0.0
 47
0.0
 47
0.0
 47
1.0
 47
0.0
 47
0.0
 47
0.0
 47
0.0
 47
1.0
171
     0
 49
0.0208333333333333
 49
0.0
 49
0.0
 49
0.0
 49
0.0
 49
0.0208333333333333
 49
0.0
 49
0.0
 49
0.0
 49
0.0
 49
1.0
 49
0.0
 49
0.0
 49
0.0
 49
0.0
 49
1.0
175
     0
142
0.0208333333333333
142
0.0
142
0.0
142
0.0
142
0.0
142
0.0208333333333333
142
0.0
142
0.0
142
0.0
142
0.0
142
1.0
142
0.0
142
0.0
142
0.0
142
0.0
142
1.0
179
     0
144
0.0208333333333333
144
0.0
144
0.0
144
0.0
144
0.0
144
0.0208333333333333
144
0.0
144
0.0
144
0.0
144
0.0
144
1.0
144
0.0
144
0.0
144
0.0
144
0.0
144
1.0
147
0.0208333333333333
147
0.0
147
0.0
147
0.0
147
0.0
147
0.0208333333333333
147
0.0
147
0.0
147
0.0
147
0.0
147
1.0
147
0.0
147
0.0
147
0.0
147
0.0
147
1.0
  0
MATERIAL
  5
21
102
{ACAD_XDICTIONARY
360
22
102
}
102
{ACAD_REACTORS
330
10
102
}
330
10
100
AcDbMaterial
  1
Global
 72
     0
 43
0.0208333333333333
 43
0.0
 43
0.0
 43
0.0
 43
0.0
 43
0.0208333333333333
 43
0.0
 43
0.0
 43
0.0
 43
0.0
 43
1.0
 43
0.0
 43
0.0
 43
0.0
 43
0.0
 43
1.0
 77
     0
 47
0.0208333333333333
 47
0.0
 47
0.0
 47
0.0
 47
0.0
 47
0.0208333333333333
 47
0.0
 47
0.0
 47
0.0
 47
0.0
 47
1.0
 47
0.0
 47
0.0
 47
0.0
 47
0.0
 47
1.0
171
     0
 49
0.0208333333333333
 49
0.0
 49
0.0
 49
0.0
 49
0.0
 49
0.0208333333333333
 49
0.0
 49
0.0
 49
0.0
 49
0.0
 49
1.0
 49
0.0
 49
0.0
 49
0.0
 49
0.0
 49
1.0
175
     0
142
0.0208333333333333
142
0.0
142
0.0
142
0.0
142
0.0
142
0.0208333333333333
142
0.0
142
0.0
142
0.0
142
0.0
142
1.0
142
0.0
142
0.0
142
0.0
142
0.0
142
1.0
179
     0
144
0.0208333333333333
144
0.0
144
0.0
144
0.0
144
0.0
144
0.0208333333333333
144
0.0
144
0.0
144
0.0
144
0.0
144
1.0
144
0.0
144
0.0
144
0.0
144
0.0
144
1.0
147
0.0208333333333333
147
0.0
147
0.0
147
0.0
147
0.0
147
0.0208333333333333
147
0.0
147
0.0
147
0.0
147
0.0
147
1.0
147
0.0
147
0.0
147
0.0
147
0.0
147
1.0
  0
MLEADERSTYLE
  5
66
102
{ACAD_REACTORS
330
65
102
}
330
65
100
AcDbMLeaderStyle
179
     2
170
     2
171
     1
172
     0
 90
        2
 40
0.0
 41
0.0
173
     1
 91
-1056964608
340
5A
 92
       -2
290
     1
 42
0.09
291
     1
 43
0.36
  3
Standard
 44
0.18
300

342
55
174
     1
178
     6
175
     1
176
     0
 93
-1056964608
 45
0.18
292
     0
297
     0
 46
0.18
 94
-1056964608
 47
1.0
 49
1.0
140
1.0
293
     1
141
0.0
294
     1
177
     0
142
1.0
295
     0
296
     0
143
0.125
271
     0
272
     9
273
     9
  0
MLINESTYLE
  5
5F
102
{ACAD_REACTORS
330
5E
102
}
330
5E
100
AcDbMlineStyle
  2
STANDARD
 70
     0
  3

 62
   256
 51
90.0
 52
90.0
 71
     2
 49
0.5
 62
   256
  6
BYLAYER
 49
-0.5
 62
   256
  6
BYLAYER
  0
ACDBPLACEHOLDER
  5
F
102
{ACAD_REACTORS
330
E
102
}
330
E
  0
SCALE
  5
43
102
{ACAD_REACTORS
330
42
102
}
330
42
100
AcDbScale
 70
     0
300
1:1
140
1.0
141
1.0
290
     1
  0
SCALE
  5
44
102
{ACAD_REACTORS
330
42
102
}
330
42
100
AcDbScale
 70
     0
300
1/128" = 1'-0"
140
0.0078125
141
12.0
290
     0
  0
SCALE
  5
45
102
{ACAD_REACTORS
330
42
102
}
330
42
100
AcDbScale
 70
     0
300
1/64" = 1'-0"
140
0.015625
141
12.0
290
     0
  0
SCALE
  5
46
102
{ACAD_REACTORS
330
42
102
}
330
42
100
AcDbScale
 70
     0
300
1/32" = 1'-0"
140
0.03125
141
12.0
290
     0
  0
SCALE
  5
47
102
{ACAD_REACTORS
330
42
102
}
330
42
100
AcDbScale
 70
     0
300
1/16" = 1'-0"
140
0.0625
141
12.0
290
     0
  0
SCALE
  5
48
102
{ACAD_REACTORS
330
42
102
}
330
42
100
AcDbScale
 70
     0
300
3/32" = 1'-0"
140
0.09375
141
12.0
290
     0
  0
SCALE
  5
49
102
{ACAD_REACTORS
330
42
102
}
330
42
100
AcDbScale
 70
     0
300
1/8" = 1'-0"
140
0.125
141
12.0
290
     0
  0
SCALE
  5
4A
102
{ACAD_REACTORS
330
42
102
}
330
42
100
AcDbScale
 70
     0
300
3/16" = 1'-0"
140
0.1875
141
12.0
290
     0
  0
SCALE
  5
4B
102
{ACAD_REACTORS
330
42
102
}
330
42
100
AcDbScale
 70
     0
300
1/4" = 1'-0"
140
0.25
141
12.0
290
     0
  0
SCALE
  5
4C
102
{ACAD_REACTORS
330
42
102
}
330
42
100
AcDbScale
 70
     0
300
3/8" = 1'-0"
140
0.375
141
12.0
290
     0
  0
SCALE
  5
4D
102
{ACAD_REACTORS
330
42
102
}
330
42
100
AcDbScale
 70
     0
300
1/2" = 1'-0"
140
0.5
141
12.0
290
     0
  0
SCALE
  5
4E
102
{ACAD_REACTORS
330
42
102
}
330
42
100
AcDbScale
 70
     0
300
3/4" = 1'-0"
140
0.75
141
12.0
290
     0
  0
SCALE
  5
4F
102
{ACAD_REACTORS
330
42
102
}
330
42
100
AcDbScale
 70
     0
300
1" = 1'-0"
140
1.0
141
12.0
290
     0
  0
SCALE
  5
50
102
{ACAD_REACTORS
330
42
102
}
330
42
100
AcDbScale
 70
     0
300
1-1/2" = 1'-0"
140
1.5
141
12.0
290
     0
  0
SCALE
  5
51
102
{ACAD_REACTORS
330
42
102
}
330
42
100
AcDbScale
 70
     0
300
3" = 1'-0"
140
3.0
141
12.0
290
     0
  0
SCALE
  5
52
102
{ACAD_REACTORS
330
42
102
}
330
42
100
AcDbScale
 70
     0
300
6" = 1'-0"
140
6.0
141
12.0
290
     0
  0
SCALE
  5
53
102
{ACAD_REACTORS
330
42
102
}
330
42
100
AcDbScale
 70
     0
300
1'-0" = 1'-0"
140
12.0
141
12.0
290
     0
  0
ACDBSECTIONVIEWSTYLE
  5
68
102
{ACAD_XDICTIONARY
360
24CE
102
}
102
{ACAD_REACTORS
330
67
102
}
330
67
100
AcDbModelDocViewStyle
 70
     0
  3
Imperial24
290
     0
100
AcDbSectionViewStyle
 70
     0
 71
     0
 90
       78
 71
     1
340
55
 62
   256
 40
0.24
340
0
340
0
 62
   256
 40
0.24
300
I, O, Q, S, X, Z
 40
0.48
 90
        3
 40
0.18
 90
        1
 71
     2
340
5C
 90
       25
 62
   256
340
5C
 90
       50
 62
   256
 40
0.24
 40
0.0
 40
0.24
 71
     3
340
55
 62
   256
 40
0.24
 90
        1
 40
0.75
 90
        1
300
%<\AcVar ViewType \f "%tc1">% %<\AcVar ViewSectionStartId>%-%<\AcVar ViewSectionEndId>%\PSCALE %<\AcVar ViewScale \f "%sn">%
 71
     4
 62
   256
 62
   257
300
ANSI31
 40
1.0
 90
        0
290
     0
290
     0
 90
        6
 40
0.0
 40
1.570796326794896
 40
0.2617993877991494
 40
1.308996938995747
 40
-0.2617993877991494
 40
1.832595714594046
  0
TABLESTYLE
  5
64
102
{ACAD_XDICTIONARY
360
2B5C
102
}
102
{ACAD_REACTORS
330
63
102
}
330
63
100
AcDbTableStyle
280
     0
  3
Standard
 70
     0
 71
     0
 40
0.06
 41
0.06
280
     0
281
     0
  7
Standard
140
0.18
170
     2
 62
     0
 63
     7
283
     0
 90
      512
 91
        0
  1

274
    -2
284
     1
 64
     0
275
    -2
285
     1
 65
     0
276
    -2
286
     1
 66
     0
277
    -2
287
     1
 67
     0
278
    -2
288
     1
 68
     0
279
    -2
289
     1
 69
     0
  7
Standard
140
0.25
170
     5
 62
     0
 63
     7
283
     0
 90
      512
 91
        0
  1

274
    -2
284
     1
 64
     0
275
    -2
285
     1
 65
     0
276
    -2
286
     1
 66
     0
277
    -2
287
     1
 67
     0
278
    -2
288
     1
 68
     0
279
    -2
289
     1
 69
     0
  7
Standard
140
0.18
170
     5
 62
     0
 63
     7
283
     0
 90
      512
 91
        0
  1

274
    -2
284
     1
 64
     0
275
    -2
285
     1
 65
     0
276
    -2
286
     1
 66
     0
277
    -2
287
     1
 67
     0
278
    -2
288
     1
 68
     0
279
    -2
289
     1
 69
     0
  0
VISUALSTYLE
  5
2F
102
{ACAD_XDICTIONARY
360
2B71
102
}
102
{ACAD_REACTORS
330
29
102
}
330
29
100
AcDbVisualStyle
  2
2dWireframe
 70
     4
177
     2
291
     0
 71
     0
176
     1
 72
     2
176
     1
 73
     0
176
     1
 90
        0
176
     1
 40
0.6
176
     1
 41
30.0
176
     1
 63
     7
421
 16777215
176
     1
 74
     1
176
     1
 91
        4
176
     1
 64
     7
176
     1
 65
   257
176
     1
 75
     1
176
     1
175
     1
176
     1
 42
1.0
176
     1
 92
        0
176
     1
 66
   257
176
     1
 43
1.0
176
     1
 76
     1
176
     1
 77
     6
176
     1
 78
     2
176
     1
 67
     7
176
     1
 79
     5
176
     1
170
     0
176
     1
171
     0
176
     1
290
     0
176
     1
 93
        1
176
     1
 44
0.0
176
     1
173
     0
176
     1
1001
ACAD
1000
AcDbSavedByObjectVersion
1070
     0
  0
VISUALSTYLE
  5
2E
102
{ACAD_XDICTIONARY
360
2B6F
102
}
102
{ACAD_REACTORS
330
29
102
}
330
29
100
AcDbVisualStyle
  2
Basic
 70
     7
177
     2
291
     1
 71
     1
176
     1
 72
     0
176
     1
 73
     1
176
     1
 90
        0
176
     1
 40
0.6
176
     1
 41
30.0
176
     1
 63
     7
421
 16777215
176
     1
 74
     0
176
     1
 91
        4
176
     1
 64
     7
176
     1
 65
   257
176
     1
 75
     1
176
     1
175
     1
176
     1
 42
1.0
176
     1
 92
        8
176
     1
 66
     7
176
     1
 43
1.0
176
     1
 76
     1
176
     1
 77
     6
176
     1
 78
     2
176
     1
 67
     7
176
     1
 79
     5
176
     1
170
     0
176
     1
171
     0
176
     1
290
     0
176
     1
 93
        1
176
     1
 44
0.0
176
     1
173
     0
176
     1
1001
ACAD
1000
AcDbSavedByObjectVersion
1070
     0
  0
VISUALSTYLE
  5
35
102
{ACAD_XDICTIONARY
360
2B7D
102
}
102
{ACAD_REACTORS
330
29
102
}
330
29
100
AcDbVisualStyle
  2
Brighten
 70
    12
177
     2
291
     1
 71
     2
176
     1
 72
     2
176
     1
 73
     0
176
     1
 90
        0
176
     1
 40
0.6
176
     1
 41
30.0
176
     1
 63
     7
421
 16777215
176
     1
 74
     1
176
     1
 91
        4
176
     1
 64
     7
176
     1
 65
   257
176
     1
 75
     1
176
     1
175
     1
176
     1
 42
1.0
176
     1
 92
        8
176
     1
 66
     7
176
     1
 43
1.0
176
     1
 76
     1
176
     1
 77
     6
176
     1
 78
     2
176
     1
 67
     7
176
     1
 79
     5
176
     1
170
     0
176
     1
171
     0
176
     1
290
     0
176
     1
 93
        1
176
     1
 44
50.0
176
     1
173
     0
176
     1
1001
ACAD
1000
AcDbSavedByObjectVersion
1070
     0
  0
VISUALSTYLE
  5
39
102
{ACAD_XDICTIONARY
360
2B85
102
}
102
{ACAD_REACTORS
330
29
102
}
330
29
100
AcDbVisualStyle
  2
ColorChange
 70
    16
177
     2
291
     1
 71
     2
176
     1
 72
     2
176
     1
 73
     3
176
     1
 90
        0
176
     1
 40
0.6
176
     1
 41
30.0
176
     1
 63
     8
421
  8421504
176
     1
 74
     1
176
     1
 91
        4
176
     1
 64
     7
176
     1
 65
   257
176
     1
 75
     1
176
     1
175
     1
176
     1
 42
1.0
176
     1
 92
        8
176
     1
 66
     8
424
  8421504
176
     1
 43
1.0
176
     1
 76
     1
176
     1
 77
     6
176
     1
 78
     2
176
     1
 67
     7
176
     1
 79
     5
176
     1
170
     0
176
     1
171
     0
176
     1
290
     0
176
     1
 93
        1
176
     1
 44
0.0
176
     1
173
     0
176
     1
1001
ACAD
1000
AcDbSavedByObjectVersion
1070
     0
  0
VISUALSTYLE
  5
32
102
{ACAD_XDICTIONARY
360
2B77
102
}
102
{ACAD_REACTORS
330
29
102
}
330
29
100
AcDbVisualStyle
  2
Conceptual
 70
     9
177
     2
291
     0
 71
     3
176
     1
 72
     2
176
     1
 73
     0
176
     1
 90
        0
176
     1
 40
0.6
176
     1
 41
30.0
176
     1
 63
     7
421
 16777215
176
     1
 74
     2
176
     1
 91
        2
176
     1
 64
     7
176
     1
 65
   257
176
     1
 75
     1
176
     1
175
     1
176
     1
 42
179.0
176
     1
 92
        8
176
     1
 66
     7
176
     1
 43
1.0
176
     1
 76
     1
176
     1
 77
     6
176
     1
 78
     2
176
     1
 67
     7
176
     1
 79
     3
176
     1
170
     0
176
     1
171
     0
176
     1
290
     0
176
     1
 93
        1
176
     1
 44
0.0
176
     1
173
     0
176
     1
1001
ACAD
1000
AcDbSavedByObjectVersion
1070
     0
  0
VISUALSTYLE
  5
34
102
{ACAD_XDICTIONARY
360
2B7B
102
}
102
{ACAD_REACTORS
330
29
102
}
330
29
100
AcDbVisualStyle
  2
Dim
 70
    11
177
     2
291
     1
 71
     2
176
     1
 72
     2
176
     1
 73
     0
176
     1
 90
        0
176
     1
 40
0.6
176
     1
 41
30.0
176
     1
 63
     7
421
 16777215
176
     1
 74
     1
176
     1
 91
        4
176
     1
 64
     7
176
     1
 65
   257
176
     1
 75
     1
176
     1
175
     1
176
     1
 42
1.0
176
     1
 92
        8
176
     1
 66
     7
176
     1
 43
1.0
176
     1
 76
     1
176
     1
 77
     6
176
     1
 78
     2
176
     1
 67
     7
176
     1
 79
     5
176
     1
170
     0
176
     1
171
     0
176
     1
290
     0
176
     1
 93
        1
176
     1
 44
-50.0
176
     1
173
     0
176
     1
1001
ACAD
1000
AcDbSavedByObjectVersion
1070
     0
  0
VISUALSTYLE
  5
41
102
{ACAD_XDICTIONARY
360
2B95
102
}
102
{ACAD_REACTORS
330
29
102
}
330
29
100
AcDbVisualStyle
  2
EdgeColorOff
 70
    22
177
     2
291
     1
 71
     2
176
     0
 72
     2
176
     0
 73
     0
176
     0
 90
        0
176
     0
 40
0.6
176
     0
 41
30.0
176
     0
 63
     7
421
 16777215
176
     0
 74
     1
176
     0
 91
        4
176
     0
 64
     7
176
     0
 65
   257
176
     0
 75
     1
176
     0
175
     1
176
     0
 42
1.0
176
     0
 92
        8
176
     2
 66
     7
176
     0
 43
1.0
176
     0
 76
     1
176
     0
 77
     6
176
     0
 78
     2
176
     0
 67
     7
176
     0
 79
     5
176
     0
170
     0
176
     0
171
     0
176
     0
290
     0
176
     0
 93
        1
176
     0
 44
0.0
176
     0
173
     0
176
     0
1001
ACAD
1000
AcDbSavedByObjectVersion
1070
     0
  0
VISUALSTYLE
  5
38
102
{ACAD_XDICTIONARY
360
2B83
102
}
102
{ACAD_REACTORS
330
29
102
}
330
29
100
AcDbVisualStyle
  2
Facepattern
 70
    15
177
     2
291
     1
 71
     2
176
     1
 72
     2
176
     1
 73
     0
176
     1
 90
        0
176
     1
 40
0.6
176
     1
 41
30.0
176
     1
 63
     7
421
 16777215
176
     1
 74
     1
176
     1
 91
        4
176
     1
 64
     7
176
     1
 65
   257
176
     1
 75
     1
176
     1
175
     1
176
     1
 42
1.0
176
     1
 92
        8
176
     1
 66
     7
176
     1
 43
1.0
176
     1
 76
     1
176
     1
 77
     6
176
     1
 78
     2
176
     1
 67
     7
176
     1
 79
     5
176
     1
170
     0
176
     1
171
     0
176
     1
290
     0
176
     1
 93
        1
176
     1
 44
0.0
176
     1
173
     0
176
     1
1001
ACAD
1000
AcDbSavedByObjectVersion
1070
     0
  0
VISUALSTYLE
  5
2A
102
{ACAD_XDICTIONARY
360
2B67
102
}
102
{ACAD_REACTORS
330
29
102
}
330
29
100
AcDbVisualStyle
  2
Flat
 70
     0
177
     2
291
     1
 71
     2
176
     1
 72
     1
176
     1
 73
     1
176
     1
 90
        2
176
     1
 40
0.6
176
     1
 41
30.0
176
     1
 63
     7
421
 16777215
176
     1
 74
     0
176
     1
 91
        0
176
     1
 64
     7
176
     1
 65
   257
176
     1
 75
     1
176
     1
175
     1
176
     1
 42
1.0
176
     1
 92
        8
176
     1
 66
     7
176
     1
 43
1.0
176
     1
 76
     1
176
     1
 77
     6
176
     1
 78
     2
176
     1
 67
     7
176
     1
 79
     5
176
     1
170
     0
176
     1
171
     0
176
     1
290
     0
176
     1
 93
       13
176
     1
 44
0.0
176
     1
173
     0
176
     1
1001
ACAD
1000
AcDbSavedByObjectVersion
1070
     0
  0
VISUALSTYLE
  5
2B
102
{ACAD_XDICTIONARY
360
2B69
102
}
102
{ACAD_REACTORS
330
29
102
}
330
29
100
AcDbVisualStyle
  2
FlatWithEdges
 70
     1
177
     2
291
     1
 71
     2
176
     1
 72
     1
176
     1
 73
     1
176
     1
 90
        2
176
     1
 40
0.6
176
     1
 41
30.0
176
     1
 63
     7
421
 16777215
176
     1
 74
     1
176
     1
 91
        0
176
     1
 64
     7
176
     1
 65
   257
176
     1
 75
     1
176
     1
175
     1
176
     1
 42
1.0
176
     1
 92
        0
176
     1
 66
   257
176
     1
 43
1.0
176
     1
 76
     1
176
     1
 77
     6
176
     1
 78
     2
176
     1
 67
     7
176
     1
 79
     5
176
     1
170
     0
176
     1
171
     0
176
     1
290
     0
176
     1
 93
       13
176
     1
 44
0.0
176
     1
173
     0
176
     1
1001
ACAD
1000
AcDbSavedByObjectVersion
1070
     0
  0
VISUALSTYLE
  5
2C
102
{ACAD_XDICTIONARY
360
2B6B
102
}
102
{ACAD_REACTORS
330
29
102
}
330
29
100
AcDbVisualStyle
  2
Gouraud
 70
     2
177
     2
291
     1
 71
     2
176
     1
 72
     2
176
     1
 73
     1
176
     1
 90
        2
176
     1
 40
0.6
176
     1
 41
30.0
176
     1
 63
     7
421
 16777215
176
     1
 74
     0
176
     1
 91
        0
176
     1
 64
     7
176
     1
 65
   257
176
     1
 75
     1
176
     1
175
     1
176
     1
 42
1.0
176
     1
 92
        0
176
     1
 66
     7
176
     1
 43
1.0
176
     1
 76
     1
176
     1
 77
     6
176
     1
 78
     2
176
     1
 67
     7
176
     1
 79
     5
176
     1
170
     0
176
     1
171
     0
176
     1
290
     0
176
     1
 93
       13
176
     1
 44
0.0
176
     1
173
     0
176
     1
1001
ACAD
1000
AcDbSavedByObjectVersion
1070
     0
  0
VISUALSTYLE
  5
2D
102
{ACAD_XDICTIONARY
360
2B6D
102
}
102
{ACAD_REACTORS
330
29
102
}
330
29
100
AcDbVisualStyle
  2
GouraudWithEdges
 70
     3
177
     2
291
     1
 71
     2
176
     1
 72
     2
176
     1
 73
     1
176
     1
 90
        2
176
     1
 40
0.6
176
     1
 41
30.0
176
     1
 63
     7
421
 16777215
176
     1
 74
     1
176
     1
 91
        0
176
     1
 64
     7
176
     1
 65
   257
176
     1
 75
     1
176
     1
175
     1
176
     1
 42
1.0
176
     1
 92
        0
176
     1
 66
   257
176
     1
 43
1.0
176
     1
 76
     1
176
     1
 77
     6
176
     1
 78
     2
176
     1
 67
     7
176
     1
 79
     5
176
     1
170
     0
176
     1
171
     0
176
     1
290
     0
176
     1
 93
       13
176
     1
 44
0.0
176
     1
173
     0
176
     1
1001
ACAD
1000
AcDbSavedByObjectVersion
1070
     0
  0
VISUALSTYLE
  5
31
102
{ACAD_XDICTIONARY
360
2B75
102
}
102
{ACAD_REACTORS
330
29
102
}
330
29
100
AcDbVisualStyle
  2
Hidden
 70
     6
177
     2
291
     0
 71
     1
176
     1
 72
     2
176
     1
 73
     2
176
     1
 90
        0
176
     1
 40
0.6
176
     1
 41
30.0
176
     1
 63
     7
421
 16777215
176
     1
 74
     2
176
     1
 91
        2
176
     1
 64
     7
176
     1
 65
   257
176
     1
 75
     2
176
     1
175
     1
176
     1
 42
40.0
176
     1
 92
        0
176
     1
 66
   257
176
     1
 43
1.0
176
     1
 76
     1
176
     1
 77
     6
176
     1
 78
     2
176
     1
 67
     7
176
     1
 79
     3
176
     1
170
     0
176
     1
171
     0
176
     1
290
     0
176
     1
 93
        1
176
     1
 44
0.0
176
     1
173
     0
176
     1
1001
ACAD
1000
AcDbSavedByObjectVersion
1070
     0
  0
VISUALSTYLE
  5
3F
102
{ACAD_XDICTIONARY
360
2B91
102
}
102
{ACAD_REACTORS
330
29
102
}
330
29
100
AcDbVisualStyle
  2
JitterOff
 70
    20
177
     2
291
     1
 71
     2
176
     0
 72
     2
176
     0
 73
     0
176
     0
 90
        0
176
     0
 40
0.6
176
     0
 41
30.0
176
     0
 63
     7
421
 16777215
176
     0
 74
     1
176
     0
 91
        4
176
     0
 64
     7
176
     0
 65
   257
176
     0
 75
     1
176
     0
175
     1
176
     0
 42
1.0
176
     0
 92
       10
176
     2
 66
     7
176
     0
 43
1.0
176
     0
 76
     1
176
     0
 77
     6
176
     0
 78
     2
176
     0
 67
     7
176
     0
 79
     5
176
     0
170
     0
176
     0
171
     0
176
     0
290
     0
176
     0
 93
        1
176
     0
 44
0.0
176
     0
173
     0
176
     0
1001
ACAD
1000
AcDbSavedByObjectVersion
1070
     0
  0
VISUALSTYLE
  5
37
102
{ACAD_XDICTIONARY
360
2B81
102
}
102
{ACAD_REACTORS
330
29
102
}
330
29
100
AcDbVisualStyle
  2
Linepattern
 70
    14
177
     2
291
     1
 71
     2
176
     1
 72
     2
176
     1
 73
     0
176
     1
 90
        0
176
     1
 40
0.6
176
     1
 41
30.0
176
     1
 63
     7
421
 16777215
176
     1
 74
     1
176
     1
 91
        4
176
     1
 64
     7
176
     1
 65
   257
176
     1
 75
     7
176
     1
175
     7
176
     1
 42
1.0
176
     1
 92
        8
176
     1
 66
     7
176
     1
 43
1.0
176
     1
 76
     1
176
     1
 77
     6
176
     1
 78
     2
176
     1
 67
     7
176
     1
 79
     5
176
     1
170
     0
176
     1
171
     0
176
     1
290
     0
176
     1
 93
        1
176
     1
 44
0.0
176
     1
173
     0
176
     1
1001
ACAD
1000
AcDbSavedByObjectVersion
1070
     0
  0
VISUALSTYLE
  5
40
102
{ACAD_XDICTIONARY
360
2B93
102
}
102
{ACAD_REACTORS
330
29
102
}
330
29
100
AcDbVisualStyle
  2
OverhangOff
 70
    21
177
     2
291
     1
 71
     2
176
     0
 72
     2
176
     0
 73
     0
176
     0
 90
        0
176
     0
 40
0.6
176
     0
 41
30.0
176
     0
 63
     7
421
 16777215
176
     0
 74
     1
176
     0
 91
        4
176
     0
 64
     7
176
     0
 65
   257
176
     0
 75
     1
176
     0
175
     1
176
     0
 42
1.0
176
     0
 92
        9
176
     2
 66
     7
176
     0
 43
1.0
176
     0
 76
     1
176
     0
 77
     6
176
     0
 78
     2
176
     0
 67
     7
176
     0
 79
     5
176
     0
170
     0
176
     0
171
     0
176
     0
290
     0
176
     0
 93
        1
176
     0
 44
0.0
176
     0
173
     0
176
     0
1001
ACAD
1000
AcDbSavedByObjectVersion
1070
     0
  0
VISUALSTYLE
  5
33
102
{ACAD_XDICTIONARY
360
2B79
102
}
102
{ACAD_REACTORS
330
29
102
}
330
29
100
AcDbVisualStyle
  2
Realistic
 70
     8
177
     2
291
     0
 71
     2
176
     1
 72
     3
176
     1
 73
     0
176
     1
 90
        2
176
     1
 40
0.6
176
     1
 41
30.0
176
     1
 63
     7
421
 16777215
176
     1
 74
     0
176
     1
 91
        0
176
     1
 64
     7
176
     1
 65
   257
176
     1
 75
     1
176
     1
175
     1
176
     1
 42
1.0
176
     1
 92
        8
176
     1
 66
   257
176
     1
 43
1.0
176
     1
 76
     1
176
     1
 77
     6
176
     1
 78
     2
176
     1
 67
     7
176
     1
 79
     3
176
     1
170
     0
176
     1
171
     0
176
     1
290
     0
176
     1
 93
       13
176
     1
 44
0.0
176
     1
173
     0
176
     1
1001
ACAD
1000
AcDbSavedByObjectVersion
1070
     0
  0
VISUALSTYLE
  5
3E
102
{ACAD_XDICTIONARY
360
2B8F
102
}
102
{ACAD_REACTORS
330
29
102
}
330
29
100
AcDbVisualStyle
  2
Shaded
 70
    27
177
     2
291
     0
 71
     2
176
     1
 72
     2
176
     1
 73
     1
176
     1
 90
        2
176
     1
 40
0.6
176
     1
 41
30.0
176
     1
 63
     7
421
 16777215
176
     1
 74
     0
176
     1
 91
        4
176
     1
 64
     7
176
     1
 65
   257
176
     1
 75
     1
176
     1
175
     1
176
     1
 42
1.0
176
     1
 92
        8
176
     1
 66
   257
176
     1
 43
1.0
176
     1
 76
     1
176
     1
 77
     6
176
     1
 78
     2
176
     1
 67
     8
425
  7895160
176
     1
 79
     3
176
     1
170
     0
176
     1
171
     0
176
     1
290
     0
176
     1
 93
        5
176
     1
 44
0.0
176
     1
173
     0
176
     1
1001
ACAD
1000
AcDbSavedByObjectVersion
1070
     0
  0
VISUALSTYLE
  5
3D
102
{ACAD_XDICTIONARY
360
2B8D
102
}
102
{ACAD_REACTORS
330
29
102
}
330
29
100
AcDbVisualStyle
  2
Shaded with edges
 70
    26
177
     2
291
     0
 71
     2
176
     1
 72
     2
176
     1
 73
     1
176
     1
 90
        2
176
     1
 40
0.6
176
     1
 41
30.0
176
     1
 63
     7
421
 16777215
176
     1
 74
     1
176
     1
 91
        2
176
     1
 64
     7
176
     1
 65
   257
176
     1
 75
     2
176
     1
175
     1
176
     1
 42
1.0
176
     1
 92
        8
176
     1
 66
   257
176
     1
 43
1.0
176
     1
 76
     1
176
     1
 77
     6
176
     1
 78
     2
176
     1
 67
     7
176
     1
 79
     3
176
     1
170
     0
176
     1
171
     0
176
     1
290
     0
176
     1
 93
        5
176
     1
 44
0.0
176
     1
173
     0
176
     1
1001
ACAD
1000
AcDbSavedByObjectVersion
1070
     0
  0
VISUALSTYLE
  5
3A
102
{ACAD_XDICTIONARY
360
2B87
102
}
102
{ACAD_REACTORS
330
29
102
}
330
29
100
AcDbVisualStyle
  2
Shades of Gray
 70
    23
177
     2
291
     0
 71
     2
176
     1
 72
     2
176
     1
 73
     3
176
     1
 90
        0
176
     1
 40
0.6
176
     1
 41
30.0
176
     1
 63
     7
421
 16777215
176
     1
 74
     2
176
     1
 91
        2
176
     1
 64
     7
176
     1
 65
     7
176
     1
 75
     1
176
     1
175
     1
176
     1
 42
40.0
176
     1
 92
        8
176
     1
 66
     7
176
     1
 43
1.0
176
     1
 76
     1
176
     1
 77
     6
176
     1
 78
     2
176
     1
 67
     7
176
     1
 79
     3
176
     1
170
     0
176
     1
171
     0
176
     1
290
     0
176
     1
 93
        1
176
     1
 44
0.0
176
     1
173
     0
176
     1
1001
ACAD
1000
AcDbSavedByObjectVersion
1070
     0
  0
VISUALSTYLE
  5
3B
102
{ACAD_XDICTIONARY
360
2B89
102
}
102
{ACAD_REACTORS
330
29
102
}
330
29
100
AcDbVisualStyle
  2
Sketchy
 70
    24
177
     2
291
     0
 71
     1
176
     1
 72
     2
176
     1
 73
     2
176
     1
 90
        0
176
     1
 40
0.6
176
     1
 41
30.0
176
     1
 63
     7
421
 16777215
176
     1
 74
     2
176
     1
 91
        2
176
     1
 64
     7
176
     1
 65
     7
176
     1
 75
     1
176
     1
175
     1
176
     1
 42
40.0
176
     1
 92
       11
176
     1
 66
     7
176
     1
 43
1.0
176
     1
 76
     1
176
     1
 77
     6
176
     1
 78
     2
176
     1
 67
     7
176
     1
 79
     6
176
     1
170
     0
176
     1
171
     0
176
     1
290
     0
176
     1
 93
        1
176
     1
 44
0.0
176
     1
173
     0
176
     1
1001
ACAD
1000
AcDbSavedByObjectVersion
1070
     0
  0
VISUALSTYLE
  5
36
102
{ACAD_XDICTIONARY
360
2B7F
102
}
102
{ACAD_REACTORS
330
29
102
}
330
29
100
AcDbVisualStyle
  2
Thicken
 70
    13
177
     2
291
     1
 71
     2
176
     1
 72
     2
176
     1
 73
     0
176
     1
 90
        0
176
     1
 40
0.6
176
     1
 41
30.0
176
     1
 63
     7
421
 16777215
176
     1
 74
     1
176
     1
 91
        4
176
     1
 64
     7
176
     1
 65
   257
176
     1
 75
     1
176
     1
175
     1
176
     1
 42
1.0
176
     1
 92
       12
176
     1
 66
     7
176
     1
 43
1.0
176
     1
 76
     1
176
     1
 77
     6
176
     1
 78
     2
176
     1
 67
     7
176
     1
 79
     5
176
     1
170
     0
176
     1
171
     0
176
     1
290
     0
176
     1
 93
        1
176
     1
 44
0.0
176
     1
173
     0
176
     1
1001
ACAD
1000
AcDbSavedByObjectVersion
1070
     0
  0
VISUALSTYLE
  5
30
102
{ACAD_XDICTIONARY
360
2B73
102
}
102
{ACAD_REACTORS
330
29
102
}
330
29
100
AcDbVisualStyle
  2
Wireframe
 70
     5
177
     2
291
     0
 71
     0
176
     1
 72
     2
176
     1
 73
     0
176
     1
 90
        0
176
     1
 40
0.6
176
     1
 41
30.0
176
     1
 63
     7
421
 16777215
176
     1
 74
     1
176
     1
 91
        4
176
     1
 64
     7
176
     1
 65
   257
176
     1
 75
     1
176
     1
175
     1
176
     1
 42
1.0
176
     1
 92
        0
176
     1
 66
   257
176
     1
 43
1.0
176
     1
 76
     1
176
     1
 77
     6
176
     1
 78
     2
176
     1
 67
     7
176
     1
 79
     3
176
     1
170
     0
176
     1
171
     0
176
     1
290
     0
176
     1
 93
        1
176
     1
 44
0.0
176
     1
173
     0
176
     1
1001
ACAD
1000
AcDbSavedByObjectVersion
1070
     0
  0
VISUALSTYLE
  5
3C
102
{ACAD_XDICTIONARY
360
2B8B
102
}
102
{ACAD_REACTORS
330
29
102
}
330
29
100
AcDbVisualStyle
  2
X-Ray
 70
    25
177
     2
291
     0
 71
     2
176
     1
 72
     2
176
     1
 73
     1
176
     1
 90
        1
176
     1
 40
0.5
176
     1
 41
30.0
176
     1
 63
     7
421
 16777215
176
     1
 74
     1
176
     1
 91
        0
176
     1
 64
     7
176
     1
 65
   257
176
     1
 75
     1
176
     1
175
     1
176
     1
 42
1.0
176
     1
 92
        8
176
     1
 66
     7
176
     1
 43
1.0
176
     1
 76
     1
176
     1
 77
     6
176
     1
 78
     2
176
     1
 67
     7
176
     1
 79
     3
176
     1
170
     0
176
     1
171
     0
176
     1
290
     0
176
     1
 93
       13
176
     1
 44
0.0
176
     1
173
     0
176
     1
1001
ACAD
1000
AcDbSavedByObjectVersion
1070
     0
  0
DICTIONARYVAR
  5
24D9
102
{ACAD_REACTORS
330
24D3
102
}
330
24D3
100
DictionaryVariables
280
     0
  1
1:1
  0
DICTIONARYVAR
  5
24D5
102
{ACAD_REACTORS
330
24D3
102
}
330
24D3
100
DictionaryVariables
280
     0
  1
STANDARD
  0
DICTIONARYVAR
  5
24D4
102
{ACAD_REACTORS
330
24D3
102
}
330
24D3
100
DictionaryVariables
280
     0
  1
STANDARD
  0
DICTIONARYVAR
  5
24D6
102
{ACAD_REACTORS
330
24D3
102
}
330
24D3
100
DictionaryVariables
280
     0
  1
Imperial24
  0
DICTIONARYVAR
  5
24D7
102
{ACAD_REACTORS
330
24D3
102
}
330
24D3
100
DictionaryVariables
280
     0
  1
Imperial24
  0
DICTIONARYVAR
  5
24DB
102
{ACAD_REACTORS
330
24D3
102
}
330
24D3
100
DictionaryVariables
280
     0
  1
1
  0
DICTIONARYVAR
  5
24DC
102
{ACAD_REACTORS
330
24D3
102
}
330
24D3
100
DictionaryVariables
280
     0
  1
15
  0
DICTIONARYVAR
  5
24DA
102
{ACAD_REACTORS
330
24D3
102
}
330
24D3
100
DictionaryVariables
280
     0
  1
0
  0
DICTIONARYVAR
  5
24D8
102
{ACAD_REACTORS
330
24D3
102
}
330
24D3
100
DictionaryVariables
280
     0
  1
0
  0
DICTIONARY
  5
2B66
102
{ACAD_REACTORS
330
2B64
102
}
330
2B64
100
AcDbDictionary
281
     1
  0
DICTIONARY
  5
2B65
102
{ACAD_REACTORS
330
2B64
102
}
330
2B64
100
AcDbDictionary
281
     1
  3
2456540220784
350
2B5F
  3
2456540220800
350
2B60
  3
2456540220816
350
2B61
  3
2456540220832
350
2B62
  3
2456540220848
350
2B63
  0
DICTIONARY
  5
24D0
330
6A
100
AcDbDictionary
280
     1
281
     1
  3
ACAD_XREC_ROUNDTRIP
360
2B98
  0
DICTIONARY
  5
1A
330
19
100
AcDbDictionary
280
     1
281
     1
  3
BUMPTILE
360
1C
  3
DIFFUSETILE
360
1B
  3
OPACITYTILE
360
1F
  3
REFLECTIONTILE
360
1E
  3
REFRACTIONTILE
360
20
  3
SPECULARTILE
360
1D
  0
DICTIONARY
  5
12
330
11
100
AcDbDictionary
280
     1
281
     1
  3
BUMPTILE
360
14
  3
DIFFUSETILE
360
13
  3
OPACITYTILE
360
17
  3
REFLECTIONTILE
360
16
  3
REFRACTIONTILE
360
18
  3
SPECULARTILE
360
15
  0
DICTIONARY
  5
22
330
21
100
AcDbDictionary
280
     1
281
     1
  3
BUMPTILE
360
24
  3
DIFFUSETILE
360
23
  3
OPACITYTILE
360
27
  3
REFLECTIONTILE
360
26
  3
REFRACTIONTILE
360
28
  3
SPECULARTILE
360
25
  0
DICTIONARY
  5
24CE
330
68
100
AcDbDictionary
280
     1
281
     1
  3
ACAD_XREC_ROUNDTRIP
360
2B97
  0
DICTIONARY
  5
2B5C
330
64
100
AcDbDictionary
280
     1
281
     1
  3
ACAD_ROUNDTRIP_2008_TABLESTYLE_CELLSTYLEMAP
360
2B5D
  0
DICTIONARY
  5
2B71
330
2F
100
AcDbDictionary
280
     1
281
     1
  3
ACAD_XREC_ROUNDTRIP
360
2B72
  0
DICTIONARY
  5
2B6F
330
2E
100
AcDbDictionary
280
     1
281
     1
  3
ACAD_XREC_ROUNDTRIP
360
2B70
  0
DICTIONARY
  5
2B7D
330
35
100
AcDbDictionary
280
     1
281
     1
  3
ACAD_XREC_ROUNDTRIP
360
2B7E
  0
DICTIONARY
  5
2B85
330
39
100
AcDbDictionary
280
     1
281
     1
  3
ACAD_XREC_ROUNDTRIP
360
2B86
  0
DICTIONARY
  5
2B77
330
32
100
AcDbDictionary
280
     1
281
     1
  3
ACAD_XREC_ROUNDTRIP
360
2B78
  0
DICTIONARY
  5
2B7B
330
34
100
AcDbDictionary
280
     1
281
     1
  3
ACAD_XREC_ROUNDTRIP
360
2B7C
  0
DICTIONARY
  5
2B95
330
41
100
AcDbDictionary
280
     1
281
     1
  3
ACAD_XREC_ROUNDTRIP
360
2B96
  0
DICTIONARY
  5
2B83
330
38
100
AcDbDictionary
280
     1
281
     1
  3
ACAD_XREC_ROUNDTRIP
360
2B84
  0
DICTIONARY
  5
2B67
330
2A
100
AcDbDictionary
280
     1
281
     1
  3
ACAD_XREC_ROUNDTRIP
360
2B68
  0
DICTIONARY
  5
2B69
330
2B
100
AcDbDictionary
280
     1
281
     1
  3
ACAD_XREC_ROUNDTRIP
360
2B6A
  0
DICTIONARY
  5
2B6B
330
2C
100
AcDbDictionary
280
     1
281
     1
  3
ACAD_XREC_ROUNDTRIP
360
2B6C
  0
DICTIONARY
  5
2B6D
330
2D
100
AcDbDictionary
280
     1
281
     1
  3
ACAD_XREC_ROUNDTRIP
360
2B6E
  0
DICTIONARY
  5
2B75
330
31
100
AcDbDictionary
280
     1
281
     1
  3
ACAD_XREC_ROUNDTRIP
360
2B76
  0
DICTIONARY
  5
2B91
330
3F
100
AcDbDictionary
280
     1
281
     1
  3
ACAD_XREC_ROUNDTRIP
360
2B92
  0
DICTIONARY
  5
2B81
330
37
100
AcDbDictionary
280
     1
281
     1
  3
ACAD_XREC_ROUNDTRIP
360
2B82
  0
DICTIONARY
  5
2B93
330
40
100
AcDbDictionary
280
     1
281
     1
  3
ACAD_XREC_ROUNDTRIP
360
2B94
  0
DICTIONARY
  5
2B79
330
33
100
AcDbDictionary
280
     1
281
     1
  3
ACAD_XREC_ROUNDTRIP
360
2B7A
  0
DICTIONARY
  5
2B8F
330
3E
100
AcDbDictionary
280
     1
281
     1
  3
ACAD_XREC_ROUNDTRIP
360
2B90
  0
DICTIONARY
  5
2B8D
330
3D
100
AcDbDictionary
280
     1
281
     1
  3
ACAD_XREC_ROUNDTRIP
360
2B8E
  0
DICTIONARY
  5
2B87
330
3A
100
AcDbDictionary
280
     1
281
     1
  3
ACAD_XREC_ROUNDTRIP
360
2B88
  0
DICTIONARY
  5
2B89
330
3B
100
AcDbDictionary
280
     1
281
     1
  3
ACAD_XREC_ROUNDTRIP
360
2B8A
  0
DICTIONARY
  5
2B7F
330
36
100
AcDbDictionary
280
     1
281
     1
  3
ACAD_XREC_ROUNDTRIP
360
2B80
  0
DICTIONARY
  5
2B73
330
30
100
AcDbDictionary
280
     1
281
     1
  3
ACAD_XREC_ROUNDTRIP
360
2B74
  0
DICTIONARY
  5
2B8B
330
3C
100
AcDbDictionary
280
     1
281
     1
  3
ACAD_XREC_ROUNDTRIP
360
2B8C
  0
XRECORD
  5
2B5F
102
{ACAD_REACTORS
330
2B65
102
}
330
2B65
100
AcDbXrecord
280
     1
  1
AcDb_Thumbnail_Schema
102
{ATTRRECORD
341
2B60
  2
AcDbDs::TreatedAsObjectData
280
     1
291
     1
102
ATTRRECORD}
102
{ATTRRECORD
341
2B61
  2
AcDbDs::Legacy
280
     1
291
     1
102
ATTRRECORD}
  2
AcDbDs::ID
280
    10
 91
        8
102
{ATTRRECORD
341
2B62
  2
AcDs:Indexable
280
     1
291
     1
102
ATTRRECORD}
102
{ATTRRECORD
341
2B63
  2
AcDbDs::HandleAttribute
280
     7
282
     1
102
ATTRRECORD}
  2
Thumbnail_Data
280
    15
 91
        0
  0
XRECORD
  5
2B60
102
{ACAD_REACTORS
330
2B65
102
}
330
2B65
100
AcDbXrecord
280
     1
  1
AcDbDs::TreatedAsObjectDataSchema
  2
AcDbDs::TreatedAsObjectData
280
     1
 91
        0
  0
XRECORD
  5
2B61
102
{ACAD_REACTORS
330
2B65
102
}
330
2B65
100
AcDbXrecord
280
     1
  1
AcDbDs::LegacySchema
  2
AcDbDs::Legacy
280
     1
 91
        0
  0
XRECORD
  5
2B62
102
{ACAD_REACTORS
330
2B65
102
}
330
2B65
100
AcDbXrecord
280
     1
  1
AcDbDs::IndexedPropertySchema
  2
AcDs:Indexable
280
     1
 91
        0
  0
XRECORD
  5
2B63
102
{ACAD_REACTORS
330
2B65
102
}
330
2B65
100
AcDbXrecord
280
     1
  1
AcDbDs::HandleAttributeSchema
  2
AcDbDs::HandleAttribute
280
     7
 91
        1
284
     1
  0
XRECORD
  5
2B98
102
{ACAD_REACTORS
330
24D0
102
}
330
24D0
100
AcDbXrecord
280
     1
102
DISPLAYNAME
  1
Imperial24
102
FLAGS
 90
        0
  0
XRECORD
  5
1C
102
{ACAD_REACTORS
330
1A
102
}
330
1A
100
AcDbXrecord
280
     1
270
     1
271
     1
  0
XRECORD
  5
1B
102
{ACAD_REACTORS
330
1A
102
}
330
1A
100
AcDbXrecord
280
     1
270
     1
271
     1
  0
XRECORD
  5
1F
102
{ACAD_REACTORS
330
1A
102
}
330
1A
100
AcDbXrecord
280
     1
270
     1
271
     1
  0
XRECORD
  5
1E
102
{ACAD_REACTORS
330
1A
102
}
330
1A
100
AcDbXrecord
280
     1
270
     1
271
     1
  0
XRECORD
  5
20
102
{ACAD_REACTORS
330
1A
102
}
330
1A
100
AcDbXrecord
280
     1
270
     1
271
     1
  0
XRECORD
  5
1D
102
{ACAD_REACTORS
330
1A
102
}
330
1A
100
AcDbXrecord
280
     1
270
     1
271
     1
  0
XRECORD
  5
14
102
{ACAD_REACTORS
330
12
102
}
330
12
100
AcDbXrecord
280
     1
270
     1
271
     1
  0
XRECORD
  5
13
102
{ACAD_REACTORS
330
12
102
}
330
12
100
AcDbXrecord
280
     1
270
     1
271
     1
  0
XRECORD
  5
17
102
{ACAD_REACTORS
330
12
102
}
330
12
100
AcDbXrecord
280
     1
270
     1
271
     1
  0
XRECORD
  5
16
102
{ACAD_REACTORS
330
12
102
}
330
12
100
AcDbXrecord
280
     1
270
     1
271
     1
  0
XRECORD
  5
18
102
{ACAD_REACTORS
330
12
102
}
330
12
100
AcDbXrecord
280
     1
270
     1
271
     1
  0
XRECORD
  5
15
102
{ACAD_REACTORS
330
12
102
}
330
12
100
AcDbXrecord
280
     1
270
     1
271
     1
  0
XRECORD
  5
24
102
{ACAD_REACTORS
330
22
102
}
330
22
100
AcDbXrecord
280
     1
270
     1
271
     1
  0
XRECORD
  5
23
102
{ACAD_REACTORS
330
22
102
}
330
22
100
AcDbXrecord
280
     1
270
     1
271
     1
  0
XRECORD
  5
27
102
{ACAD_REACTORS
330
22
102
}
330
22
100
AcDbXrecord
280
     1
270
     1
271
     1
  0
XRECORD
  5
26
102
{ACAD_REACTORS
330
22
102
}
330
22
100
AcDbXrecord
280
     1
270
     1
271
     1
  0
XRECORD
  5
28
102
{ACAD_REACTORS
330
22
102
}
330
22
100
AcDbXrecord
280
     1
270
     1
271
     1
  0
XRECORD
  5
25
102
{ACAD_REACTORS
330
22
102
}
330
22
100
AcDbXrecord
280
     1
270
     1
271
     1
  0
XRECORD
  5
2B97
102
{ACAD_REACTORS
330
24CE
102
}
330
24CE
100
AcDbXrecord
280
     1
102
DISPLAYNAME
  1
Imperial24
102
FLAGS
 90
        0
  0
CELLSTYLEMAP
  5
2B5D
102
{ACAD_REACTORS
330
2B5C
102
}
330
2B5C
100
AcDbCellStyleMap
 90
        3
300
CELLSTYLE
  1
TABLEFORMAT_BEGIN
 90
        5
170
     1
 91
        0
 92
    32768
 62
   257
 93
        1
300
CONTENTFORMAT
  1
CONTENTFORMAT_BEGIN
 90
        0
 91
        0
 92
      512
 93
        0
300

 40
0.0
140
1.0
 94
        5
 62
     0
340
55
144
0.25
309
CONTENTFORMAT_END
171
     0
 94
        0
309
TABLEFORMAT_END
  1
CELLSTYLE_BEGIN
 90
        1
 91
        1
300
_TITLE
309
CELLSTYLE_END
300
CELLSTYLE
  1
TABLEFORMAT_BEGIN
 90
        5
170
     1
 91
        0
 92
        0
 62
   257
 93
        1
300
CONTENTFORMAT
  1
CONTENTFORMAT_BEGIN
 90
        0
 91
        0
 92
      512
 93
        0
300

 40
0.0
140
1.0
 94
        5
 62
     0
340
55
144
0.18
309
CONTENTFORMAT_END
171
     0
 94
        0
309
TABLEFORMAT_END
  1
CELLSTYLE_BEGIN
 90
        2
 91
        1
300
_HEADER
309
CELLSTYLE_END
300
CELLSTYLE
  1
TABLEFORMAT_BEGIN
 90
        5
170
     1
 91
        0
 92
        0
 62
   257
 93
        1
300
CONTENTFORMAT
  1
CONTENTFORMAT_BEGIN
 90
        0
 91
        0
 92
      512
 93
        0
300

 40
0.0
140
1.0
 94
        2
 62
     0
340
55
144
0.18
309
CONTENTFORMAT_END
171
     0
 94
        0
309
TABLEFORMAT_END
  1
CELLSTYLE_BEGIN
 90
        3
 91
        2
300
_DATA
309
CELLSTYLE_END
  0
XRECORD
  5
2B72
102
{ACAD_REACTORS
330
2B71
102
}
330
2B71
100
AcDbXrecord
280
     1
102
RTVSPost2010Prop28
280
     1
102
RTVSPost2010PropOp28
 70
     1
102
RTVSPost2010Prop29
280
     1
102
RTVSPost2010PropOp29
 70
     1
102
RTVSPost2010Prop30
280
     0
102
RTVSPost2010PropOp30
 70
     1
102
RTVSPost2010Prop31
280
     0
102
RTVSPost2010PropOp31
 70
     1
102
RTVSPost2010Prop32
280
     0
102
RTVSPost2010PropOp32
 70
     1
102
RTVSPost2010Prop33
280
     0
102
RTVSPost2010PropOp33
 70
     1
102
RTVSPost2010Prop34
280
     0
102
RTVSPost2010PropOp34
 70
     1
102
RTVSPost2010Prop35
280
     0
102
RTVSPost2010PropOp35
 70
     1
102
RTVSPost2010Prop36
280
     0
102
RTVSPost2010PropOp36
 70
     1
102
RTVSPost2010Prop37
 90
       50
102
RTVSPost2010PropOp37
 70
     1
102
RTVSPost2010Prop38
140
0.0
102
RTVSPost2010PropOp38
 70
     1
102
RTVSPost2010Prop39
140
1.0
102
RTVSPost2010PropOp39
 70
     1
102
RTVSPost2010Prop40
 90
        0
102
RTVSPost2010PropOp40
 70
     1
102
RTVSPost2010Prop41ColorIndex
 90
       18
102
RTVSPost2010Prop41ColorRGB
 90
        0
102
RTVSPost2010PropOp41
 70
     1
102
RTVSPost2010Prop42
 90
       50
102
RTVSPost2010PropOp42
 70
     1
102
RTVSPost2010Prop43
 90
        3
102
RTVSPost2010PropOp43
 70
     1
102
RTVSPost2010Prop44ColorIndex
 90
        5
102
RTVSPost2010Prop44ColorRGB
 90
      255
102
RTVSPost2010PropOp44
 70
     1
102
RTVSPost2010Prop45
280
     0
102
RTVSPost2010PropOp45
 70
     1
102
RTVSPost2010Prop46
 90
       50
102
RTVSPost2010PropOp46
 70
     1
102
RTVSPost2010Prop47
 90
       50
102
RTVSPost2010PropOp47
 70
     1
102
RTVSPost2010Prop48
 90
       50
102
RTVSPost2010PropOp48
 70
     1
102
RTVSPost2010Prop49
280
     0
102
RTVSPost2010PropOp49
 70
     1
102
RTVSPost2010Prop50
 90
       50
102
RTVSPost2010PropOp50
 70
     1
102
RTVSPost2010Prop51ColorIndex
 90
      256
102
RTVSPost2010Prop51ColorRGB
 90
-16777216
102
RTVSPost2010PropOp51
 70
     0
102
RTVSPost2010Prop52
140
1.0
102
RTVSPost2010PropOp52
 70
     0
102
RTVSPost2010Prop53
 90
        2
102
RTVSPost2010PropOp53
 70
     1
102
RTVSPost2010Prop54
  1
strokes_ogs.tif
102
RTVSPost2010PropOp54
 70
     1
102
RTVSPost2010Prop55
280
     0
102
RTVSPost2010PropOp55
 70
     1
102
RTVSPost2010Prop56
140
1.0
102
RTVSPost2010PropOp56
 70
     1
102
RTVSPost2010Prop57
140
1.0
102
RTVSPost2010PropOp57
 70
     1
  0
XRECORD
  5
2B70
102
{ACAD_REACTORS
330
2B6F
102
}
330
2B6F
100
AcDbXrecord
280
     1
102
RTVSPost2010Prop28
280
     0
102
RTVSPost2010PropOp28
 70
     1
102
RTVSPost2010Prop29
280
     1
102
RTVSPost2010PropOp29
 70
     1
102
RTVSPost2010Prop30
280
     1
102
RTVSPost2010PropOp30
 70
     1
102
RTVSPost2010Prop31
280
     0
102
RTVSPost2010PropOp31
 70
     1
102
RTVSPost2010Prop32
280
     0
102
RTVSPost2010PropOp32
 70
     1
102
RTVSPost2010Prop33
280
     0
102
RTVSPost2010PropOp33
 70
     1
102
RTVSPost2010Prop34
280
     0
102
RTVSPost2010PropOp34
 70
     1
102
RTVSPost2010Prop35
280
     0
102
RTVSPost2010PropOp35
 70
     1
102
RTVSPost2010Prop36
280
     0
102
RTVSPost2010PropOp36
 70
     1
102
RTVSPost2010Prop37
 90
       50
102
RTVSPost2010PropOp37
 70
     1
102
RTVSPost2010Prop38
140
0.0
102
RTVSPost2010PropOp38
 70
     1
102
RTVSPost2010Prop39
140
1.0
102
RTVSPost2010PropOp39
 70
     1
102
RTVSPost2010Prop40
 90
        0
102
RTVSPost2010PropOp40
 70
     1
102
RTVSPost2010Prop41ColorIndex
 90
       18
102
RTVSPost2010Prop41ColorRGB
 90
        0
102
RTVSPost2010PropOp41
 70
     1
102
RTVSPost2010Prop42
 90
       50
102
RTVSPost2010PropOp42
 70
     1
102
RTVSPost2010Prop43
 90
        3
102
RTVSPost2010PropOp43
 70
     1
102
RTVSPost2010Prop44ColorIndex
 90
        5
102
RTVSPost2010Prop44ColorRGB
 90
      255
102
RTVSPost2010PropOp44
 70
     1
102
RTVSPost2010Prop45
280
     0
102
RTVSPost2010PropOp45
 70
     1
102
RTVSPost2010Prop46
 90
       50
102
RTVSPost2010PropOp46
 70
     1
102
RTVSPost2010Prop47
 90
       50
102
RTVSPost2010PropOp47
 70
     1
102
RTVSPost2010Prop48
 90
       50
102
RTVSPost2010PropOp48
 70
     1
102
RTVSPost2010Prop49
280
     0
102
RTVSPost2010PropOp49
 70
     1
102
RTVSPost2010Prop50
 90
       50
102
RTVSPost2010PropOp50
 70
     1
102
RTVSPost2010Prop51ColorIndex
 90
      256
102
RTVSPost2010Prop51ColorRGB
 90
-16777216
102
RTVSPost2010PropOp51
 70
     0
102
RTVSPost2010Prop52
140
1.0
102
RTVSPost2010PropOp52
 70
     0
102
RTVSPost2010Prop53
 90
        2
102
RTVSPost2010PropOp53
 70
     1
102
RTVSPost2010Prop54
  1
strokes_ogs.tif
102
RTVSPost2010PropOp54
 70
     1
102
RTVSPost2010Prop55
280
     0
102
RTVSPost2010PropOp55
 70
     1
102
RTVSPost2010Prop56
140
1.0
102
RTVSPost2010PropOp56
 70
     1
102
RTVSPost2010Prop57
140
1.0
102
RTVSPost2010PropOp57
 70
     1
  0
XRECORD
  5
2B7E
102
{ACAD_REACTORS
330
2B7D
102
}
330
2B7D
100
AcDbXrecord
280
     1
102
RTVSPost2010Prop28
280
     0
102
RTVSPost2010PropOp28
 70
     1
102
RTVSPost2010Prop29
280
     1
102
RTVSPost2010PropOp29
 70
     1
102
RTVSPost2010Prop30
280
     1
102
RTVSPost2010PropOp30
 70
     1
102
RTVSPost2010Prop31
280
     0
102
RTVSPost2010PropOp31
 70
     1
102
RTVSPost2010Prop32
280
     0
102
RTVSPost2010PropOp32
 70
     1
102
RTVSPost2010Prop33
280
     0
102
RTVSPost2010PropOp33
 70
     1
102
RTVSPost2010Prop34
280
     0
102
RTVSPost2010PropOp34
 70
     1
102
RTVSPost2010Prop35
280
     0
102
RTVSPost2010PropOp35
 70
     1
102
RTVSPost2010Prop36
280
     0
102
RTVSPost2010PropOp36
 70
     1
102
RTVSPost2010Prop37
 90
       50
102
RTVSPost2010PropOp37
 70
     1
102
RTVSPost2010Prop38
140
0.0
102
RTVSPost2010PropOp38
 70
     1
102
RTVSPost2010Prop39
140
1.0
102
RTVSPost2010PropOp39
 70
     1
102
RTVSPost2010Prop40
 90
        0
102
RTVSPost2010PropOp40
 70
     1
102
RTVSPost2010Prop41ColorIndex
 90
       18
102
RTVSPost2010Prop41ColorRGB
 90
        0
102
RTVSPost2010PropOp41
 70
     1
102
RTVSPost2010Prop42
 90
       50
102
RTVSPost2010PropOp42
 70
     1
102
RTVSPost2010Prop43
 90
        3
102
RTVSPost2010PropOp43
 70
     1
102
RTVSPost2010Prop44ColorIndex
 90
        5
102
RTVSPost2010Prop44ColorRGB
 90
      255
102
RTVSPost2010PropOp44
 70
     1
102
RTVSPost2010Prop45
280
     0
102
RTVSPost2010PropOp45
 70
     1
102
RTVSPost2010Prop46
 90
       50
102
RTVSPost2010PropOp46
 70
     1
102
RTVSPost2010Prop47
 90
       50
102
RTVSPost2010PropOp47
 70
     1
102
RTVSPost2010Prop48
 90
       50
102
RTVSPost2010PropOp48
 70
     1
102
RTVSPost2010Prop49
280
     0
102
RTVSPost2010PropOp49
 70
     1
102
RTVSPost2010Prop50
 90
       50
102
RTVSPost2010PropOp50
 70
     1
102
RTVSPost2010Prop51ColorIndex
 90
      256
102
RTVSPost2010Prop51ColorRGB
 90
-16777216
102
RTVSPost2010PropOp51
 70
     0
102
RTVSPost2010Prop52
140
1.0
102
RTVSPost2010PropOp52
 70
     0
102
RTVSPost2010Prop53
 90
        2
102
RTVSPost2010PropOp53
 70
     1
102
RTVSPost2010Prop54
  1
strokes_ogs.tif
102
RTVSPost2010PropOp54
 70
     1
102
RTVSPost2010Prop55
280
     0
102
RTVSPost2010PropOp55
 70
     1
102
RTVSPost2010Prop56
140
1.0
102
RTVSPost2010PropOp56
 70
     1
102
RTVSPost2010Prop57
140
1.0
102
RTVSPost2010PropOp57
 70
     1
  0
XRECORD
  5
2B86
102
{ACAD_REACTORS
330
2B85
102
}
330
2B85
100
AcDbXrecord
280
     1
102
RTVSPost2010Prop28
280
     0
102
RTVSPost2010PropOp28
 70
     1
102
RTVSPost2010Prop29
280
     1
102
RTVSPost2010PropOp29
 70
     1
102
RTVSPost2010Prop30
280
     1
102
RTVSPost2010PropOp30
 70
     1
102
RTVSPost2010Prop31
280
     0
102
RTVSPost2010PropOp31
 70
     1
102
RTVSPost2010Prop32
280
     0
102
RTVSPost2010PropOp32
 70
     1
102
RTVSPost2010Prop33
280
     0
102
RTVSPost2010PropOp33
 70
     1
102
RTVSPost2010Prop34
280
     0
102
RTVSPost2010PropOp34
 70
     1
102
RTVSPost2010Prop35
280
     0
102
RTVSPost2010PropOp35
 70
     1
102
RTVSPost2010Prop36
280
     0
102
RTVSPost2010PropOp36
 70
     1
102
RTVSPost2010Prop37
 90
       50
102
RTVSPost2010PropOp37
 70
     1
102
RTVSPost2010Prop38
140
0.0
102
RTVSPost2010PropOp38
 70
     1
102
RTVSPost2010Prop39
140
1.0
102
RTVSPost2010PropOp39
 70
     1
102
RTVSPost2010Prop40
 90
        0
102
RTVSPost2010PropOp40
 70
     1
102
RTVSPost2010Prop41ColorIndex
 90
       18
102
RTVSPost2010Prop41ColorRGB
 90
        0
102
RTVSPost2010PropOp41
 70
     1
102
RTVSPost2010Prop42
 90
       50
102
RTVSPost2010PropOp42
 70
     1
102
RTVSPost2010Prop43
 90
        3
102
RTVSPost2010PropOp43
 70
     1
102
RTVSPost2010Prop44ColorIndex
 90
        5
102
RTVSPost2010Prop44ColorRGB
 90
      255
102
RTVSPost2010PropOp44
 70
     1
102
RTVSPost2010Prop45
280
     0
102
RTVSPost2010PropOp45
 70
     1
102
RTVSPost2010Prop46
 90
       50
102
RTVSPost2010PropOp46
 70
     1
102
RTVSPost2010Prop47
 90
       50
102
RTVSPost2010PropOp47
 70
     1
102
RTVSPost2010Prop48
 90
       50
102
RTVSPost2010PropOp48
 70
     1
102
RTVSPost2010Prop49
280
     0
102
RTVSPost2010PropOp49
 70
     1
102
RTVSPost2010Prop50
 90
       50
102
RTVSPost2010PropOp50
 70
     1
102
RTVSPost2010Prop51ColorIndex
 90
      256
102
RTVSPost2010Prop51ColorRGB
 90
-16777216
102
RTVSPost2010PropOp51
 70
     0
102
RTVSPost2010Prop52
140
1.0
102
RTVSPost2010PropOp52
 70
     0
102
RTVSPost2010Prop53
 90
        2
102
RTVSPost2010PropOp53
 70
     1
102
RTVSPost2010Prop54
  1
strokes_ogs.tif
102
RTVSPost2010PropOp54
 70
     1
102
RTVSPost2010Prop55
280
     0
102
RTVSPost2010PropOp55
 70
     1
102
RTVSPost2010Prop56
140
1.0
102
RTVSPost2010PropOp56
 70
     1
102
RTVSPost2010Prop57
140
1.0
102
RTVSPost2010PropOp57
 70
     1
  0
XRECORD
  5
2B78
102
{ACAD_REACTORS
330
2B77
102
}
330
2B77
100
AcDbXrecord
280
     1
102
RTVSPost2010Prop28
280
     0
102
RTVSPost2010PropOp28
 70
     1
102
RTVSPost2010Prop29
280
     1
102
RTVSPost2010PropOp29
 70
     1
102
RTVSPost2010Prop30
280
     1
102
RTVSPost2010PropOp30
 70
     1
102
RTVSPost2010Prop31
280
     0
102
RTVSPost2010PropOp31
 70
     1
102
RTVSPost2010Prop32
280
     0
102
RTVSPost2010PropOp32
 70
     1
102
RTVSPost2010Prop33
280
     0
102
RTVSPost2010PropOp33
 70
     1
102
RTVSPost2010Prop34
280
     0
102
RTVSPost2010PropOp34
 70
     1
102
RTVSPost2010Prop35
280
     0
102
RTVSPost2010PropOp35
 70
     1
102
RTVSPost2010Prop36
280
     0
102
RTVSPost2010PropOp36
 70
     1
102
RTVSPost2010Prop37
 90
       50
102
RTVSPost2010PropOp37
 70
     1
102
RTVSPost2010Prop38
140
0.0
102
RTVSPost2010PropOp38
 70
     1
102
RTVSPost2010Prop39
140
1.0
102
RTVSPost2010PropOp39
 70
     1
102
RTVSPost2010Prop40
 90
        0
102
RTVSPost2010PropOp40
 70
     1
102
RTVSPost2010Prop41ColorIndex
 90
       18
102
RTVSPost2010Prop41ColorRGB
 90
        0
102
RTVSPost2010PropOp41
 70
     1
102
RTVSPost2010Prop42
 90
       50
102
RTVSPost2010PropOp42
 70
     1
102
RTVSPost2010Prop43
 90
        3
102
RTVSPost2010PropOp43
 70
     1
102
RTVSPost2010Prop44ColorIndex
 90
        5
102
RTVSPost2010Prop44ColorRGB
 90
      255
102
RTVSPost2010PropOp44
 70
     1
102
RTVSPost2010Prop45
280
     0
102
RTVSPost2010PropOp45
 70
     1
102
RTVSPost2010Prop46
 90
       50
102
RTVSPost2010PropOp46
 70
     1
102
RTVSPost2010Prop47
 90
       50
102
RTVSPost2010PropOp47
 70
     1
102
RTVSPost2010Prop48
 90
       50
102
RTVSPost2010PropOp48
 70
     1
102
RTVSPost2010Prop49
280
     0
102
RTVSPost2010PropOp49
 70
     1
102
RTVSPost2010Prop50
 90
       50
102
RTVSPost2010PropOp50
 70
     1
102
RTVSPost2010Prop51ColorIndex
 90
      256
102
RTVSPost2010Prop51ColorRGB
 90
-16777216
102
RTVSPost2010PropOp51
 70
     0
102
RTVSPost2010Prop52
140
1.0
102
RTVSPost2010PropOp52
 70
     0
102
RTVSPost2010Prop53
 90
        2
102
RTVSPost2010PropOp53
 70
     1
102
RTVSPost2010Prop54
  1
strokes_ogs.tif
102
RTVSPost2010PropOp54
 70
     1
102
RTVSPost2010Prop55
280
     0
102
RTVSPost2010PropOp55
 70
     1
102
RTVSPost2010Prop56
140
1.0
102
RTVSPost2010PropOp56
 70
     1
102
RTVSPost2010Prop57
140
1.0
102
RTVSPost2010PropOp57
 70
     1
  0
XRECORD
  5
2B7C
102
{ACAD_REACTORS
330
2B7B
102
}
330
2B7B
100
AcDbXrecord
280
     1
102
RTVSPost2010Prop28
280
     0
102
RTVSPost2010PropOp28
 70
     1
102
RTVSPost2010Prop29
280
     1
102
RTVSPost2010PropOp29
 70
     1
102
RTVSPost2010Prop30
280
     1
102
RTVSPost2010PropOp30
 70
     1
102
RTVSPost2010Prop31
280
     0
102
RTVSPost2010PropOp31
 70
     1
102
RTVSPost2010Prop32
280
     0
102
RTVSPost2010PropOp32
 70
     1
102
RTVSPost2010Prop33
280
     0
102
RTVSPost2010PropOp33
 70
     1
102
RTVSPost2010Prop34
280
     0
102
RTVSPost2010PropOp34
 70
     1
102
RTVSPost2010Prop35
280
     0
102
RTVSPost2010PropOp35
 70
     1
102
RTVSPost2010Prop36
280
     0
102
RTVSPost2010PropOp36
 70
     1
102
RTVSPost2010Prop37
 90
       50
102
RTVSPost2010PropOp37
 70
     1
102
RTVSPost2010Prop38
140
0.0
102
RTVSPost2010PropOp38
 70
     1
102
RTVSPost2010Prop39
140
1.0
102
RTVSPost2010PropOp39
 70
     1
102
RTVSPost2010Prop40
 90
        0
102
RTVSPost2010PropOp40
 70
     1
102
RTVSPost2010Prop41ColorIndex
 90
       18
102
RTVSPost2010Prop41ColorRGB
 90
        0
102
RTVSPost2010PropOp41
 70
     1
102
RTVSPost2010Prop42
 90
       50
102
RTVSPost2010PropOp42
 70
     1
102
RTVSPost2010Prop43
 90
        3
102
RTVSPost2010PropOp43
 70
     1
102
RTVSPost2010Prop44ColorIndex
 90
        5
102
RTVSPost2010Prop44ColorRGB
 90
      255
102
RTVSPost2010PropOp44
 70
     1
102
RTVSPost2010Prop45
280
     0
102
RTVSPost2010PropOp45
 70
     1
102
RTVSPost2010Prop46
 90
       50
102
RTVSPost2010PropOp46
 70
     1
102
RTVSPost2010Prop47
 90
       50
102
RTVSPost2010PropOp47
 70
     1
102
RTVSPost2010Prop48
 90
       50
102
RTVSPost2010PropOp48
 70
     1
102
RTVSPost2010Prop49
280
     0
102
RTVSPost2010PropOp49
 70
     1
102
RTVSPost2010Prop50
 90
       50
102
RTVSPost2010PropOp50
 70
     1
102
RTVSPost2010Prop51ColorIndex
 90
      256
102
RTVSPost2010Prop51ColorRGB
 90
-16777216
102
RTVSPost2010PropOp51
 70
     0
102
RTVSPost2010Prop52
140
1.0
102
RTVSPost2010PropOp52
 70
     0
102
RTVSPost2010Prop53
 90
        2
102
RTVSPost2010PropOp53
 70
     1
102
RTVSPost2010Prop54
  1
strokes_ogs.tif
102
RTVSPost2010PropOp54
 70
     1
102
RTVSPost2010Prop55
280
     0
102
RTVSPost2010PropOp55
 70
     1
102
RTVSPost2010Prop56
140
1.0
102
RTVSPost2010PropOp56
 70
     1
102
RTVSPost2010Prop57
140
1.0
102
RTVSPost2010PropOp57
 70
     1
  0
XRECORD
  5
2B96
102
{ACAD_REACTORS
330
2B95
102
}
330
2B95
100
AcDbXrecord
280
     1
102
RTVSPost2010Prop28
280
     0
102
RTVSPost2010PropOp28
 70
     1
102
RTVSPost2010Prop29
280
     1
102
RTVSPost2010PropOp29
 70
     1
102
RTVSPost2010Prop30
280
     1
102
RTVSPost2010PropOp30
 70
     1
102
RTVSPost2010Prop31
280
     0
102
RTVSPost2010PropOp31
 70
     1
102
RTVSPost2010Prop32
280
     0
102
RTVSPost2010PropOp32
 70
     1
102
RTVSPost2010Prop33
280
     0
102
RTVSPost2010PropOp33
 70
     1
102
RTVSPost2010Prop34
280
     0
102
RTVSPost2010PropOp34
 70
     1
102
RTVSPost2010Prop35
280
     0
102
RTVSPost2010PropOp35
 70
     1
102
RTVSPost2010Prop36
280
     0
102
RTVSPost2010PropOp36
 70
     1
102
RTVSPost2010Prop37
 90
       50
102
RTVSPost2010PropOp37
 70
     0
102
RTVSPost2010Prop38
140
0.0
102
RTVSPost2010PropOp38
 70
     0
102
RTVSPost2010Prop39
140
1.0
102
RTVSPost2010PropOp39
 70
     0
102
RTVSPost2010Prop40
 90
        0
102
RTVSPost2010PropOp40
 70
     0
102
RTVSPost2010Prop41ColorIndex
 90
       18
102
RTVSPost2010Prop41ColorRGB
 90
        0
102
RTVSPost2010PropOp41
 70
     0
102
RTVSPost2010Prop42
 90
       50
102
RTVSPost2010PropOp42
 70
     0
102
RTVSPost2010Prop43
 90
        3
102
RTVSPost2010PropOp43
 70
     0
102
RTVSPost2010Prop44ColorIndex
 90
        5
102
RTVSPost2010Prop44ColorRGB
 90
      255
102
RTVSPost2010PropOp44
 70
     0
102
RTVSPost2010Prop45
280
     0
102
RTVSPost2010PropOp45
 70
     1
102
RTVSPost2010Prop46
 90
       50
102
RTVSPost2010PropOp46
 70
     0
102
RTVSPost2010Prop47
 90
       50
102
RTVSPost2010PropOp47
 70
     0
102
RTVSPost2010Prop48
 90
       50
102
RTVSPost2010PropOp48
 70
     0
102
RTVSPost2010Prop49
280
     0
102
RTVSPost2010PropOp49
 70
     1
102
RTVSPost2010Prop50
 90
       50
102
RTVSPost2010PropOp50
 70
     0
102
RTVSPost2010Prop51ColorIndex
 90
      256
102
RTVSPost2010Prop51ColorRGB
 90
-16777216
102
RTVSPost2010PropOp51
 70
     0
102
RTVSPost2010Prop52
140
1.0
102
RTVSPost2010PropOp52
 70
     0
102
RTVSPost2010Prop53
 90
        2
102
RTVSPost2010PropOp53
 70
     0
102
RTVSPost2010Prop54
  1
strokes_ogs.tif
102
RTVSPost2010PropOp54
 70
     0
102
RTVSPost2010Prop55
280
     0
102
RTVSPost2010PropOp55
 70
     1
102
RTVSPost2010Prop56
140
1.0
102
RTVSPost2010PropOp56
 70
     0
102
RTVSPost2010Prop57
140
1.0
102
RTVSPost2010PropOp57
 70
     0
  0
XRECORD
  5
2B84
102
{ACAD_REACTORS
330
2B83
102
}
330
2B83
100
AcDbXrecord
280
     1
102
RTVSPost2010Prop28
280
     0
102
RTVSPost2010PropOp28
 70
     1
102
RTVSPost2010Prop29
280
     1
102
RTVSPost2010PropOp29
 70
     1
102
RTVSPost2010Prop30
280
     1
102
RTVSPost2010PropOp30
 70
     1
102
RTVSPost2010Prop31
280
     0
102
RTVSPost2010PropOp31
 70
     1
102
RTVSPost2010Prop32
280
     0
102
RTVSPost2010PropOp32
 70
     1
102
RTVSPost2010Prop33
280
     0
102
RTVSPost2010PropOp33
 70
     1
102
RTVSPost2010Prop34
280
     0
102
RTVSPost2010PropOp34
 70
     1
102
RTVSPost2010Prop35
280
     0
102
RTVSPost2010PropOp35
 70
     1
102
RTVSPost2010Prop36
280
     0
102
RTVSPost2010PropOp36
 70
     1
102
RTVSPost2010Prop37
 90
       50
102
RTVSPost2010PropOp37
 70
     1
102
RTVSPost2010Prop38
140
0.0
102
RTVSPost2010PropOp38
 70
     1
102
RTVSPost2010Prop39
140
1.0
102
RTVSPost2010PropOp39
 70
     1
102
RTVSPost2010Prop40
 90
        0
102
RTVSPost2010PropOp40
 70
     1
102
RTVSPost2010Prop41ColorIndex
 90
       18
102
RTVSPost2010Prop41ColorRGB
 90
        0
102
RTVSPost2010PropOp41
 70
     1
102
RTVSPost2010Prop42
 90
       50
102
RTVSPost2010PropOp42
 70
     1
102
RTVSPost2010Prop43
 90
        3
102
RTVSPost2010PropOp43
 70
     1
102
RTVSPost2010Prop44ColorIndex
 90
        5
102
RTVSPost2010Prop44ColorRGB
 90
      255
102
RTVSPost2010PropOp44
 70
     1
102
RTVSPost2010Prop45
280
     0
102
RTVSPost2010PropOp45
 70
     1
102
RTVSPost2010Prop46
 90
       50
102
RTVSPost2010PropOp46
 70
     1
102
RTVSPost2010Prop47
 90
       50
102
RTVSPost2010PropOp47
 70
     1
102
RTVSPost2010Prop48
 90
       50
102
RTVSPost2010PropOp48
 70
     1
102
RTVSPost2010Prop49
280
     0
102
RTVSPost2010PropOp49
 70
     1
102
RTVSPost2010Prop50
 90
       50
102
RTVSPost2010PropOp50
 70
     1
102
RTVSPost2010Prop51ColorIndex
 90
      256
102
RTVSPost2010Prop51ColorRGB
 90
-16777216
102
RTVSPost2010PropOp51
 70
     0
102
RTVSPost2010Prop52
140
1.0
102
RTVSPost2010PropOp52
 70
     0
102
RTVSPost2010Prop53
 90
        2
102
RTVSPost2010PropOp53
 70
     1
102
RTVSPost2010Prop54
  1
strokes_ogs.tif
102
RTVSPost2010PropOp54
 70
     1
102
RTVSPost2010Prop55
280
     0
102
RTVSPost2010PropOp55
 70
     1
102
RTVSPost2010Prop56
140
1.0
102
RTVSPost2010PropOp56
 70
     1
102
RTVSPost2010Prop57
140
1.0
102
RTVSPost2010PropOp57
 70
     1
  0
XRECORD
  5
2B68
102
{ACAD_REACTORS
330
2B67
102
}
330
2B67
100
AcDbXrecord
280
     1
102
RTVSPost2010Prop28
280
     0
102
RTVSPost2010PropOp28
 70
     1
102
RTVSPost2010Prop29
280
     1
102
RTVSPost2010PropOp29
 70
     1
102
RTVSPost2010Prop30
280
     1
102
RTVSPost2010PropOp30
 70
     1
102
RTVSPost2010Prop31
280
     0
102
RTVSPost2010PropOp31
 70
     1
102
RTVSPost2010Prop32
280
     0
102
RTVSPost2010PropOp32
 70
     1
102
RTVSPost2010Prop33
280
     0
102
RTVSPost2010PropOp33
 70
     1
102
RTVSPost2010Prop34
280
     0
102
RTVSPost2010PropOp34
 70
     1
102
RTVSPost2010Prop35
280
     0
102
RTVSPost2010PropOp35
 70
     1
102
RTVSPost2010Prop36
280
     0
102
RTVSPost2010PropOp36
 70
     1
102
RTVSPost2010Prop37
 90
       50
102
RTVSPost2010PropOp37
 70
     1
102
RTVSPost2010Prop38
140
0.0
102
RTVSPost2010PropOp38
 70
     1
102
RTVSPost2010Prop39
140
1.0
102
RTVSPost2010PropOp39
 70
     1
102
RTVSPost2010Prop40
 90
        0
102
RTVSPost2010PropOp40
 70
     1
102
RTVSPost2010Prop41ColorIndex
 90
       18
102
RTVSPost2010Prop41ColorRGB
 90
        0
102
RTVSPost2010PropOp41
 70
     1
102
RTVSPost2010Prop42
 90
       50
102
RTVSPost2010PropOp42
 70
     1
102
RTVSPost2010Prop43
 90
        3
102
RTVSPost2010PropOp43
 70
     1
102
RTVSPost2010Prop44ColorIndex
 90
        5
102
RTVSPost2010Prop44ColorRGB
 90
      255
102
RTVSPost2010PropOp44
 70
     1
102
RTVSPost2010Prop45
280
     0
102
RTVSPost2010PropOp45
 70
     1
102
RTVSPost2010Prop46
 90
       50
102
RTVSPost2010PropOp46
 70
     1
102
RTVSPost2010Prop47
 90
       50
102
RTVSPost2010PropOp47
 70
     1
102
RTVSPost2010Prop48
 90
       50
102
RTVSPost2010PropOp48
 70
     1
102
RTVSPost2010Prop49
280
     0
102
RTVSPost2010PropOp49
 70
     1
102
RTVSPost2010Prop50
 90
       50
102
RTVSPost2010PropOp50
 70
     1
102
RTVSPost2010Prop51ColorIndex
 90
      256
102
RTVSPost2010Prop51ColorRGB
 90
-16777216
102
RTVSPost2010PropOp51
 70
     0
102
RTVSPost2010Prop52
140
1.0
102
RTVSPost2010PropOp52
 70
     0
102
RTVSPost2010Prop53
 90
        2
102
RTVSPost2010PropOp53
 70
     1
102
RTVSPost2010Prop54
  1
strokes_ogs.tif
102
RTVSPost2010PropOp54
 70
     1
102
RTVSPost2010Prop55
280
     0
102
RTVSPost2010PropOp55
 70
     1
102
RTVSPost2010Prop56
140
1.0
102
RTVSPost2010PropOp56
 70
     1
102
RTVSPost2010Prop57
140
1.0
102
RTVSPost2010PropOp57
 70
     1
  0
XRECORD
  5
2B6A
102
{ACAD_REACTORS
330
2B69
102
}
330
2B69
100
AcDbXrecord
280
     1
102
RTVSPost2010Prop28
280
     0
102
RTVSPost2010PropOp28
 70
     1
102
RTVSPost2010Prop29
280
     1
102
RTVSPost2010PropOp29
 70
     1
102
RTVSPost2010Prop30
280
     1
102
RTVSPost2010PropOp30
 70
     1
102
RTVSPost2010Prop31
280
     0
102
RTVSPost2010PropOp31
 70
     1
102
RTVSPost2010Prop32
280
     0
102
RTVSPost2010PropOp32
 70
     1
102
RTVSPost2010Prop33
280
     0
102
RTVSPost2010PropOp33
 70
     1
102
RTVSPost2010Prop34
280
     0
102
RTVSPost2010PropOp34
 70
     1
102
RTVSPost2010Prop35
280
     0
102
RTVSPost2010PropOp35
 70
     1
102
RTVSPost2010Prop36
280
     0
102
RTVSPost2010PropOp36
 70
     1
102
RTVSPost2010Prop37
 90
       50
102
RTVSPost2010PropOp37
 70
     1
102
RTVSPost2010Prop38
140
0.0
102
RTVSPost2010PropOp38
 70
     1
102
RTVSPost2010Prop39
140
1.0
102
RTVSPost2010PropOp39
 70
     1
102
RTVSPost2010Prop40
 90
        0
102
RTVSPost2010PropOp40
 70
     1
102
RTVSPost2010Prop41ColorIndex
 90
       18
102
RTVSPost2010Prop41ColorRGB
 90
        0
102
RTVSPost2010PropOp41
 70
     1
102
RTVSPost2010Prop42
 90
       50
102
RTVSPost2010PropOp42
 70
     1
102
RTVSPost2010Prop43
 90
        3
102
RTVSPost2010PropOp43
 70
     1
102
RTVSPost2010Prop44ColorIndex
 90
        5
102
RTVSPost2010Prop44ColorRGB
 90
      255
102
RTVSPost2010PropOp44
 70
     1
102
RTVSPost2010Prop45
280
     0
102
RTVSPost2010PropOp45
 70
     1
102
RTVSPost2010Prop46
 90
       50
102
RTVSPost2010PropOp46
 70
     1
102
RTVSPost2010Prop47
 90
       50
102
RTVSPost2010PropOp47
 70
     1
102
RTVSPost2010Prop48
 90
       50
102
RTVSPost2010PropOp48
 70
     1
102
RTVSPost2010Prop49
280
     0
102
RTVSPost2010PropOp49
 70
     1
102
RTVSPost2010Prop50
 90
       50
102
RTVSPost2010PropOp50
 70
     1
102
RTVSPost2010Prop51ColorIndex
 90
      256
102
RTVSPost2010Prop51ColorRGB
 90
-16777216
102
RTVSPost2010PropOp51
 70
     0
102
RTVSPost2010Prop52
140
1.0
102
RTVSPost2010PropOp52
 70
     0
102
RTVSPost2010Prop53
 90
        2
102
RTVSPost2010PropOp53
 70
     1
102
RTVSPost2010Prop54
  1
strokes_ogs.tif
102
RTVSPost2010PropOp54
 70
     1
102
RTVSPost2010Prop55
280
     0
102
RTVSPost2010PropOp55
 70
     1
102
RTVSPost2010Prop56
140
1.0
102
RTVSPost2010PropOp56
 70
     1
102
RTVSPost2010Prop57
140
1.0
102
RTVSPost2010PropOp57
 70
     1
  0
XRECORD
  5
2B6C
102
{ACAD_REACTORS
330
2B6B
102
}
330
2B6B
100
AcDbXrecord
280
     1
102
RTVSPost2010Prop28
280
     0
102
RTVSPost2010PropOp28
 70
     1
102
RTVSPost2010Prop29
280
     1
102
RTVSPost2010PropOp29
 70
     1
102
RTVSPost2010Prop30
280
     1
102
RTVSPost2010PropOp30
 70
     1
102
RTVSPost2010Prop31
280
     0
102
RTVSPost2010PropOp31
 70
     1
102
RTVSPost2010Prop32
280
     0
102
RTVSPost2010PropOp32
 70
     1
102
RTVSPost2010Prop33
280
     0
102
RTVSPost2010PropOp33
 70
     1
102
RTVSPost2010Prop34
280
     0
102
RTVSPost2010PropOp34
 70
     1
102
RTVSPost2010Prop35
280
     0
102
RTVSPost2010PropOp35
 70
     1
102
RTVSPost2010Prop36
280
     0
102
RTVSPost2010PropOp36
 70
     1
102
RTVSPost2010Prop37
 90
       50
102
RTVSPost2010PropOp37
 70
     1
102
RTVSPost2010Prop38
140
0.0
102
RTVSPost2010PropOp38
 70
     1
102
RTVSPost2010Prop39
140
1.0
102
RTVSPost2010PropOp39
 70
     1
102
RTVSPost2010Prop40
 90
        0
102
RTVSPost2010PropOp40
 70
     1
102
RTVSPost2010Prop41ColorIndex
 90
       18
102
RTVSPost2010Prop41ColorRGB
 90
        0
102
RTVSPost2010PropOp41
 70
     1
102
RTVSPost2010Prop42
 90
       50
102
RTVSPost2010PropOp42
 70
     1
102
RTVSPost2010Prop43
 90
        3
102
RTVSPost2010PropOp43
 70
     1
102
RTVSPost2010Prop44ColorIndex
 90
        5
102
RTVSPost2010Prop44ColorRGB
 90
      255
102
RTVSPost2010PropOp44
 70
     1
102
RTVSPost2010Prop45
280
     0
102
RTVSPost2010PropOp45
 70
     1
102
RTVSPost2010Prop46
 90
       50
102
RTVSPost2010PropOp46
 70
     1
102
RTVSPost2010Prop47
 90
       50
102
RTVSPost2010PropOp47
 70
     1
102
RTVSPost2010Prop48
 90
       50
102
RTVSPost2010PropOp48
 70
     1
102
RTVSPost2010Prop49
280
     0
102
RTVSPost2010PropOp49
 70
     1
102
RTVSPost2010Prop50
 90
       50
102
RTVSPost2010PropOp50
 70
     1
102
RTVSPost2010Prop51ColorIndex
 90
      256
102
RTVSPost2010Prop51ColorRGB
 90
-16777216
102
RTVSPost2010PropOp51
 70
     0
102
RTVSPost2010Prop52
140
1.0
102
RTVSPost2010PropOp52
 70
     0
102
RTVSPost2010Prop53
 90
        2
102
RTVSPost2010PropOp53
 70
     1
102
RTVSPost2010Prop54
  1
strokes_ogs.tif
102
RTVSPost2010PropOp54
 70
     1
102
RTVSPost2010Prop55
280
     0
102
RTVSPost2010PropOp55
 70
     1
102
RTVSPost2010Prop56
140
1.0
102
RTVSPost2010PropOp56
 70
     1
102
RTVSPost2010Prop57
140
1.0
102
RTVSPost2010PropOp57
 70
     1
  0
XRECORD
  5
2B6E
102
{ACAD_REACTORS
330
2B6D
102
}
330
2B6D
100
AcDbXrecord
280
     1
102
RTVSPost2010Prop28
280
     0
102
RTVSPost2010PropOp28
 70
     1
102
RTVSPost2010Prop29
280
     1
102
RTVSPost2010PropOp29
 70
     1
102
RTVSPost2010Prop30
280
     1
102
RTVSPost2010PropOp30
 70
     1
102
RTVSPost2010Prop31
280
     0
102
RTVSPost2010PropOp31
 70
     1
102
RTVSPost2010Prop32
280
     0
102
RTVSPost2010PropOp32
 70
     1
102
RTVSPost2010Prop33
280
     0
102
RTVSPost2010PropOp33
 70
     1
102
RTVSPost2010Prop34
280
     0
102
RTVSPost2010PropOp34
 70
     1
102
RTVSPost2010Prop35
280
     0
102
RTVSPost2010PropOp35
 70
     1
102
RTVSPost2010Prop36
280
     0
102
RTVSPost2010PropOp36
 70
     1
102
RTVSPost2010Prop37
 90
       50
102
RTVSPost2010PropOp37
 70
     1
102
RTVSPost2010Prop38
140
0.0
102
RTVSPost2010PropOp38
 70
     1
102
RTVSPost2010Prop39
140
1.0
102
RTVSPost2010PropOp39
 70
     1
102
RTVSPost2010Prop40
 90
        0
102
RTVSPost2010PropOp40
 70
     1
102
RTVSPost2010Prop41ColorIndex
 90
       18
102
RTVSPost2010Prop41ColorRGB
 90
        0
102
RTVSPost2010PropOp41
 70
     1
102
RTVSPost2010Prop42
 90
       50
102
RTVSPost2010PropOp42
 70
     1
102
RTVSPost2010Prop43
 90
        3
102
RTVSPost2010PropOp43
 70
     1
102
RTVSPost2010Prop44ColorIndex
 90
        5
102
RTVSPost2010Prop44ColorRGB
 90
      255
102
RTVSPost2010PropOp44
 70
     1
102
RTVSPost2010Prop45
280
     0
102
RTVSPost2010PropOp45
 70
     1
102
RTVSPost2010Prop46
 90
       50
102
RTVSPost2010PropOp46
 70
     1
102
RTVSPost2010Prop47
 90
       50
102
RTVSPost2010PropOp47
 70
     1
102
RTVSPost2010Prop48
 90
       50
102
RTVSPost2010PropOp48
 70
     1
102
RTVSPost2010Prop49
280
     0
102
RTVSPost2010PropOp49
 70
     1
102
RTVSPost2010Prop50
 90
       50
102
RTVSPost2010PropOp50
 70
     1
102
RTVSPost2010Prop51ColorIndex
 90
      256
102
RTVSPost2010Prop51ColorRGB
 90
-16777216
102
RTVSPost2010PropOp51
 70
     0
102
RTVSPost2010Prop52
140
1.0
102
RTVSPost2010PropOp52
 70
     0
102
RTVSPost2010Prop53
 90
        2
102
RTVSPost2010PropOp53
 70
     1
102
RTVSPost2010Prop54
  1
strokes_ogs.tif
102
RTVSPost2010PropOp54
 70
     1
102
RTVSPost2010Prop55
280
     0
102
RTVSPost2010PropOp55
 70
     1
102
RTVSPost2010Prop56
140
1.0
102
RTVSPost2010PropOp56
 70
     1
102
RTVSPost2010Prop57
140
1.0
102
RTVSPost2010PropOp57
 70
     1
  0
XRECORD
  5
2B76
102
{ACAD_REACTORS
330
2B75
102
}
330
2B75
100
AcDbXrecord
280
     1
102
RTVSPost2010Prop28
280
     0
102
RTVSPost2010PropOp28
 70
     1
102
RTVSPost2010Prop29
280
     1
102
RTVSPost2010PropOp29
 70
     1
102
RTVSPost2010Prop30
280
     1
102
RTVSPost2010PropOp30
 70
     1
102
RTVSPost2010Prop31
280
     0
102
RTVSPost2010PropOp31
 70
     1
102
RTVSPost2010Prop32
280
     0
102
RTVSPost2010PropOp32
 70
     1
102
RTVSPost2010Prop33
280
     0
102
RTVSPost2010PropOp33
 70
     1
102
RTVSPost2010Prop34
280
     0
102
RTVSPost2010PropOp34
 70
     1
102
RTVSPost2010Prop35
280
     0
102
RTVSPost2010PropOp35
 70
     1
102
RTVSPost2010Prop36
280
     0
102
RTVSPost2010PropOp36
 70
     1
102
RTVSPost2010Prop37
 90
       50
102
RTVSPost2010PropOp37
 70
     1
102
RTVSPost2010Prop38
140
0.0
102
RTVSPost2010PropOp38
 70
     1
102
RTVSPost2010Prop39
140
1.0
102
RTVSPost2010PropOp39
 70
     1
102
RTVSPost2010Prop40
 90
        0
102
RTVSPost2010PropOp40
 70
     1
102
RTVSPost2010Prop41ColorIndex
 90
       18
102
RTVSPost2010Prop41ColorRGB
 90
        0
102
RTVSPost2010PropOp41
 70
     1
102
RTVSPost2010Prop42
 90
       50
102
RTVSPost2010PropOp42
 70
     1
102
RTVSPost2010Prop43
 90
        3
102
RTVSPost2010PropOp43
 70
     1
102
RTVSPost2010Prop44ColorIndex
 90
        5
102
RTVSPost2010Prop44ColorRGB
 90
      255
102
RTVSPost2010PropOp44
 70
     1
102
RTVSPost2010Prop45
280
     0
102
RTVSPost2010PropOp45
 70
     1
102
RTVSPost2010Prop46
 90
       50
102
RTVSPost2010PropOp46
 70
     1
102
RTVSPost2010Prop47
 90
       50
102
RTVSPost2010PropOp47
 70
     1
102
RTVSPost2010Prop48
 90
       50
102
RTVSPost2010PropOp48
 70
     1
102
RTVSPost2010Prop49
280
     0
102
RTVSPost2010PropOp49
 70
     1
102
RTVSPost2010Prop50
 90
       50
102
RTVSPost2010PropOp50
 70
     1
102
RTVSPost2010Prop51ColorIndex
 90
      256
102
RTVSPost2010Prop51ColorRGB
 90
-16777216
102
RTVSPost2010PropOp51
 70
     0
102
RTVSPost2010Prop52
140
1.0
102
RTVSPost2010PropOp52
 70
     0
102
RTVSPost2010Prop53
 90
        2
102
RTVSPost2010PropOp53
 70
     1
102
RTVSPost2010Prop54
  1
strokes_ogs.tif
102
RTVSPost2010PropOp54
 70
     1
102
RTVSPost2010Prop55
280
     0
102
RTVSPost2010PropOp55
 70
     1
102
RTVSPost2010Prop56
140
1.0
102
RTVSPost2010PropOp56
 70
     1
102
RTVSPost2010Prop57
140
1.0
102
RTVSPost2010PropOp57
 70
     1
  0
XRECORD
  5
2B92
102
{ACAD_REACTORS
330
2B91
102
}
330
2B91
100
AcDbXrecord
280
     1
102
RTVSPost2010Prop28
280
     0
102
RTVSPost2010PropOp28
 70
     1
102
RTVSPost2010Prop29
280
     1
102
RTVSPost2010PropOp29
 70
     1
102
RTVSPost2010Prop30
280
     1
102
RTVSPost2010PropOp30
 70
     1
102
RTVSPost2010Prop31
280
     0
102
RTVSPost2010PropOp31
 70
     1
102
RTVSPost2010Prop32
280
     0
102
RTVSPost2010PropOp32
 70
     1
102
RTVSPost2010Prop33
280
     0
102
RTVSPost2010PropOp33
 70
     1
102
RTVSPost2010Prop34
280
     0
102
RTVSPost2010PropOp34
 70
     1
102
RTVSPost2010Prop35
280
     0
102
RTVSPost2010PropOp35
 70
     1
102
RTVSPost2010Prop36
280
     0
102
RTVSPost2010PropOp36
 70
     1
102
RTVSPost2010Prop37
 90
       50
102
RTVSPost2010PropOp37
 70
     0
102
RTVSPost2010Prop38
140
0.0
102
RTVSPost2010PropOp38
 70
     0
102
RTVSPost2010Prop39
140
1.0
102
RTVSPost2010PropOp39
 70
     0
102
RTVSPost2010Prop40
 90
        0
102
RTVSPost2010PropOp40
 70
     0
102
RTVSPost2010Prop41ColorIndex
 90
       18
102
RTVSPost2010Prop41ColorRGB
 90
        0
102
RTVSPost2010PropOp41
 70
     0
102
RTVSPost2010Prop42
 90
       50
102
RTVSPost2010PropOp42
 70
     0
102
RTVSPost2010Prop43
 90
        3
102
RTVSPost2010PropOp43
 70
     0
102
RTVSPost2010Prop44ColorIndex
 90
        5
102
RTVSPost2010Prop44ColorRGB
 90
      255
102
RTVSPost2010PropOp44
 70
     0
102
RTVSPost2010Prop45
280
     0
102
RTVSPost2010PropOp45
 70
     1
102
RTVSPost2010Prop46
 90
       50
102
RTVSPost2010PropOp46
 70
     0
102
RTVSPost2010Prop47
 90
       50
102
RTVSPost2010PropOp47
 70
     0
102
RTVSPost2010Prop48
 90
       50
102
RTVSPost2010PropOp48
 70
     0
102
RTVSPost2010Prop49
280
     0
102
RTVSPost2010PropOp49
 70
     1
102
RTVSPost2010Prop50
 90
       50
102
RTVSPost2010PropOp50
 70
     0
102
RTVSPost2010Prop51ColorIndex
 90
      256
102
RTVSPost2010Prop51ColorRGB
 90
-16777216
102
RTVSPost2010PropOp51
 70
     0
102
RTVSPost2010Prop52
140
1.0
102
RTVSPost2010PropOp52
 70
     0
102
RTVSPost2010Prop53
 90
        2
102
RTVSPost2010PropOp53
 70
     0
102
RTVSPost2010Prop54
  1
strokes_ogs.tif
102
RTVSPost2010PropOp54
 70
     0
102
RTVSPost2010Prop55
280
     0
102
RTVSPost2010PropOp55
 70
     1
102
RTVSPost2010Prop56
140
1.0
102
RTVSPost2010PropOp56
 70
     0
102
RTVSPost2010Prop57
140
1.0
102
RTVSPost2010PropOp57
 70
     0
  0
XRECORD
  5
2B82
102
{ACAD_REACTORS
330
2B81
102
}
330
2B81
100
AcDbXrecord
280
     1
102
RTVSPost2010Prop28
280
     0
102
RTVSPost2010PropOp28
 70
     1
102
RTVSPost2010Prop29
280
     1
102
RTVSPost2010PropOp29
 70
     1
102
RTVSPost2010Prop30
280
     1
102
RTVSPost2010PropOp30
 70
     1
102
RTVSPost2010Prop31
280
     0
102
RTVSPost2010PropOp31
 70
     1
102
RTVSPost2010Prop32
280
     0
102
RTVSPost2010PropOp32
 70
     1
102
RTVSPost2010Prop33
280
     0
102
RTVSPost2010PropOp33
 70
     1
102
RTVSPost2010Prop34
280
     0
102
RTVSPost2010PropOp34
 70
     1
102
RTVSPost2010Prop35
280
     0
102
RTVSPost2010PropOp35
 70
     1
102
RTVSPost2010Prop36
280
     0
102
RTVSPost2010PropOp36
 70
     1
102
RTVSPost2010Prop37
 90
       50
102
RTVSPost2010PropOp37
 70
     1
102
RTVSPost2010Prop38
140
0.0
102
RTVSPost2010PropOp38
 70
     1
102
RTVSPost2010Prop39
140
1.0
102
RTVSPost2010PropOp39
 70
     1
102
RTVSPost2010Prop40
 90
        0
102
RTVSPost2010PropOp40
 70
     1
102
RTVSPost2010Prop41ColorIndex
 90
       18
102
RTVSPost2010Prop41ColorRGB
 90
        0
102
RTVSPost2010PropOp41
 70
     1
102
RTVSPost2010Prop42
 90
       50
102
RTVSPost2010PropOp42
 70
     1
102
RTVSPost2010Prop43
 90
        3
102
RTVSPost2010PropOp43
 70
     1
102
RTVSPost2010Prop44ColorIndex
 90
        5
102
RTVSPost2010Prop44ColorRGB
 90
      255
102
RTVSPost2010PropOp44
 70
     1
102
RTVSPost2010Prop45
280
     0
102
RTVSPost2010PropOp45
 70
     1
102
RTVSPost2010Prop46
 90
       50
102
RTVSPost2010PropOp46
 70
     1
102
RTVSPost2010Prop47
 90
       50
102
RTVSPost2010PropOp47
 70
     1
102
RTVSPost2010Prop48
 90
       50
102
RTVSPost2010PropOp48
 70
     1
102
RTVSPost2010Prop49
280
     0
102
RTVSPost2010PropOp49
 70
     1
102
RTVSPost2010Prop50
 90
       50
102
RTVSPost2010PropOp50
 70
     1
102
RTVSPost2010Prop51ColorIndex
 90
      256
102
RTVSPost2010Prop51ColorRGB
 90
-16777216
102
RTVSPost2010PropOp51
 70
     0
102
RTVSPost2010Prop52
140
1.0
102
RTVSPost2010PropOp52
 70
     0
102
RTVSPost2010Prop53
 90
        2
102
RTVSPost2010PropOp53
 70
     1
102
RTVSPost2010Prop54
  1
strokes_ogs.tif
102
RTVSPost2010PropOp54
 70
     1
102
RTVSPost2010Prop55
280
     0
102
RTVSPost2010PropOp55
 70
     1
102
RTVSPost2010Prop56
140
1.0
102
RTVSPost2010PropOp56
 70
     1
102
RTVSPost2010Prop57
140
1.0
102
RTVSPost2010PropOp57
 70
     1
  0
XRECORD
  5
2B94
102
{ACAD_REACTORS
330
2B93
102
}
330
2B93
100
AcDbXrecord
280
     1
102
RTVSPost2010Prop28
280
     0
102
RTVSPost2010PropOp28
 70
     1
102
RTVSPost2010Prop29
280
     1
102
RTVSPost2010PropOp29
 70
     1
102
RTVSPost2010Prop30
280
     1
102
RTVSPost2010PropOp30
 70
     1
102
RTVSPost2010Prop31
280
     0
102
RTVSPost2010PropOp31
 70
     1
102
RTVSPost2010Prop32
280
     0
102
RTVSPost2010PropOp32
 70
     1
102
RTVSPost2010Prop33
280
     0
102
RTVSPost2010PropOp33
 70
     1
102
RTVSPost2010Prop34
280
     0
102
RTVSPost2010PropOp34
 70
     1
102
RTVSPost2010Prop35
280
     0
102
RTVSPost2010PropOp35
 70
     1
102
RTVSPost2010Prop36
280
     0
102
RTVSPost2010PropOp36
 70
     1
102
RTVSPost2010Prop37
 90
       50
102
RTVSPost2010PropOp37
 70
     0
102
RTVSPost2010Prop38
140
0.0
102
RTVSPost2010PropOp38
 70
     0
102
RTVSPost2010Prop39
140
1.0
102
RTVSPost2010PropOp39
 70
     0
102
RTVSPost2010Prop40
 90
        0
102
RTVSPost2010PropOp40
 70
     0
102
RTVSPost2010Prop41ColorIndex
 90
       18
102
RTVSPost2010Prop41ColorRGB
 90
        0
102
RTVSPost2010PropOp41
 70
     0
102
RTVSPost2010Prop42
 90
       50
102
RTVSPost2010PropOp42
 70
     0
102
RTVSPost2010Prop43
 90
        3
102
RTVSPost2010PropOp43
 70
     0
102
RTVSPost2010Prop44ColorIndex
 90
        5
102
RTVSPost2010Prop44ColorRGB
 90
      255
102
RTVSPost2010PropOp44
 70
     0
102
RTVSPost2010Prop45
280
     0
102
RTVSPost2010PropOp45
 70
     1
102
RTVSPost2010Prop46
 90
       50
102
RTVSPost2010PropOp46
 70
     0
102
RTVSPost2010Prop47
 90
       50
102
RTVSPost2010PropOp47
 70
     0
102
RTVSPost2010Prop48
 90
       50
102
RTVSPost2010PropOp48
 70
     0
102
RTVSPost2010Prop49
280
     0
102
RTVSPost2010PropOp49
 70
     1
102
RTVSPost2010Prop50
 90
       50
102
RTVSPost2010PropOp50
 70
     0
102
RTVSPost2010Prop51ColorIndex
 90
      256
102
RTVSPost2010Prop51ColorRGB
 90
-16777216
102
RTVSPost2010PropOp51
 70
     0
102
RTVSPost2010Prop52
140
1.0
102
RTVSPost2010PropOp52
 70
     0
102
RTVSPost2010Prop53
 90
        2
102
RTVSPost2010PropOp53
 70
     0
102
RTVSPost2010Prop54
  1
strokes_ogs.tif
102
RTVSPost2010PropOp54
 70
     0
102
RTVSPost2010Prop55
280
     0
102
RTVSPost2010PropOp55
 70
     1
102
RTVSPost2010Prop56
140
1.0
102
RTVSPost2010PropOp56
 70
     0
102
RTVSPost2010Prop57
140
1.0
102
RTVSPost2010PropOp57
 70
     0
  0
XRECORD
  5
2B7A
102
{ACAD_REACTORS
330
2B79
102
}
330
2B79
100
AcDbXrecord
280
     1
102
RTVSPost2010Prop28
280
     0
102
RTVSPost2010PropOp28
 70
     1
102
RTVSPost2010Prop29
280
     1
102
RTVSPost2010PropOp29
 70
     1
102
RTVSPost2010Prop30
280
     1
102
RTVSPost2010PropOp30
 70
     1
102
RTVSPost2010Prop31
280
     0
102
RTVSPost2010PropOp31
 70
     1
102
RTVSPost2010Prop32
280
     0
102
RTVSPost2010PropOp32
 70
     1
102
RTVSPost2010Prop33
280
     0
102
RTVSPost2010PropOp33
 70
     1
102
RTVSPost2010Prop34
280
     0
102
RTVSPost2010PropOp34
 70
     1
102
RTVSPost2010Prop35
280
     0
102
RTVSPost2010PropOp35
 70
     1
102
RTVSPost2010Prop36
280
     0
102
RTVSPost2010PropOp36
 70
     1
102
RTVSPost2010Prop37
 90
       50
102
RTVSPost2010PropOp37
 70
     1
102
RTVSPost2010Prop38
140
0.0
102
RTVSPost2010PropOp38
 70
     1
102
RTVSPost2010Prop39
140
1.0
102
RTVSPost2010PropOp39
 70
     1
102
RTVSPost2010Prop40
 90
        0
102
RTVSPost2010PropOp40
 70
     1
102
RTVSPost2010Prop41ColorIndex
 90
       18
102
RTVSPost2010Prop41ColorRGB
 90
        0
102
RTVSPost2010PropOp41
 70
     1
102
RTVSPost2010Prop42
 90
       50
102
RTVSPost2010PropOp42
 70
     1
102
RTVSPost2010Prop43
 90
        3
102
RTVSPost2010PropOp43
 70
     1
102
RTVSPost2010Prop44ColorIndex
 90
        5
102
RTVSPost2010Prop44ColorRGB
 90
      255
102
RTVSPost2010PropOp44
 70
     1
102
RTVSPost2010Prop45
280
     0
102
RTVSPost2010PropOp45
 70
     1
102
RTVSPost2010Prop46
 90
       50
102
RTVSPost2010PropOp46
 70
     1
102
RTVSPost2010Prop47
 90
       50
102
RTVSPost2010PropOp47
 70
     1
102
RTVSPost2010Prop48
 90
       50
102
RTVSPost2010PropOp48
 70
     1
102
RTVSPost2010Prop49
280
     0
102
RTVSPost2010PropOp49
 70
     1
102
RTVSPost2010Prop50
 90
       50
102
RTVSPost2010PropOp50
 70
     1
102
RTVSPost2010Prop51ColorIndex
 90
      256
102
RTVSPost2010Prop51ColorRGB
 90
-16777216
102
RTVSPost2010PropOp51
 70
     0
102
RTVSPost2010Prop52
140
1.0
102
RTVSPost2010PropOp52
 70
     0
102
RTVSPost2010Prop53
 90
        2
102
RTVSPost2010PropOp53
 70
     1
102
RTVSPost2010Prop54
  1
strokes_ogs.tif
102
RTVSPost2010PropOp54
 70
     1
102
RTVSPost2010Prop55
280
     0
102
RTVSPost2010PropOp55
 70
     1
102
RTVSPost2010Prop56
140
1.0
102
RTVSPost2010PropOp56
 70
     1
102
RTVSPost2010Prop57
140
1.0
102
RTVSPost2010PropOp57
 70
     1
  0
XRECORD
  5
2B90
102
{ACAD_REACTORS
330
2B8F
102
}
330
2B8F
100
AcDbXrecord
280
     1
102
RTVSPost2010Prop28
280
     0
102
RTVSPost2010PropOp28
 70
     1
102
RTVSPost2010Prop29
280
     1
102
RTVSPost2010PropOp29
 70
     1
102
RTVSPost2010Prop30
280
     1
102
RTVSPost2010PropOp30
 70
     1
102
RTVSPost2010Prop31
280
     0
102
RTVSPost2010PropOp31
 70
     1
102
RTVSPost2010Prop32
280
     0
102
RTVSPost2010PropOp32
 70
     1
102
RTVSPost2010Prop33
280
     0
102
RTVSPost2010PropOp33
 70
     1
102
RTVSPost2010Prop34
280
     0
102
RTVSPost2010PropOp34
 70
     1
102
RTVSPost2010Prop35
280
     0
102
RTVSPost2010PropOp35
 70
     1
102
RTVSPost2010Prop36
280
     0
102
RTVSPost2010PropOp36
 70
     1
102
RTVSPost2010Prop37
 90
       50
102
RTVSPost2010PropOp37
 70
     1
102
RTVSPost2010Prop38
140
0.0
102
RTVSPost2010PropOp38
 70
     1
102
RTVSPost2010Prop39
140
1.0
102
RTVSPost2010PropOp39
 70
     1
102
RTVSPost2010Prop40
 90
        0
102
RTVSPost2010PropOp40
 70
     1
102
RTVSPost2010Prop41ColorIndex
 90
       18
102
RTVSPost2010Prop41ColorRGB
 90
        0
102
RTVSPost2010PropOp41
 70
     1
102
RTVSPost2010Prop42
 90
       50
102
RTVSPost2010PropOp42
 70
     1
102
RTVSPost2010Prop43
 90
        3
102
RTVSPost2010PropOp43
 70
     1
102
RTVSPost2010Prop44ColorIndex
 90
        5
102
RTVSPost2010Prop44ColorRGB
 90
      255
102
RTVSPost2010PropOp44
 70
     1
102
RTVSPost2010Prop45
280
     0
102
RTVSPost2010PropOp45
 70
     1
102
RTVSPost2010Prop46
 90
       50
102
RTVSPost2010PropOp46
 70
     1
102
RTVSPost2010Prop47
 90
       50
102
RTVSPost2010PropOp47
 70
     1
102
RTVSPost2010Prop48
 90
       50
102
RTVSPost2010PropOp48
 70
     1
102
RTVSPost2010Prop49
280
     0
102
RTVSPost2010PropOp49
 70
     1
102
RTVSPost2010Prop50
 90
       50
102
RTVSPost2010PropOp50
 70
     1
102
RTVSPost2010Prop51ColorIndex
 90
      256
102
RTVSPost2010Prop51ColorRGB
 90
-16777216
102
RTVSPost2010PropOp51
 70
     0
102
RTVSPost2010Prop52
140
1.0
102
RTVSPost2010PropOp52
 70
     0
102
RTVSPost2010Prop53
 90
        2
102
RTVSPost2010PropOp53
 70
     1
102
RTVSPost2010Prop54
  1
strokes_ogs.tif
102
RTVSPost2010PropOp54
 70
     1
102
RTVSPost2010Prop55
280
     0
102
RTVSPost2010PropOp55
 70
     1
102
RTVSPost2010Prop56
140
1.0
102
RTVSPost2010PropOp56
 70
     1
102
RTVSPost2010Prop57
140
1.0
102
RTVSPost2010PropOp57
 70
     1
  0
XRECORD
  5
2B8E
102
{ACAD_REACTORS
330
2B8D
102
}
330
2B8D
100
AcDbXrecord
280
     1
102
RTVSPost2010Prop28
280
     0
102
RTVSPost2010PropOp28
 70
     1
102
RTVSPost2010Prop29
280
     1
102
RTVSPost2010PropOp29
 70
     1
102
RTVSPost2010Prop30
280
     1
102
RTVSPost2010PropOp30
 70
     1
102
RTVSPost2010Prop31
280
     0
102
RTVSPost2010PropOp31
 70
     1
102
RTVSPost2010Prop32
280
     0
102
RTVSPost2010PropOp32
 70
     1
102
RTVSPost2010Prop33
280
     0
102
RTVSPost2010PropOp33
 70
     1
102
RTVSPost2010Prop34
280
     0
102
RTVSPost2010PropOp34
 70
     1
102
RTVSPost2010Prop35
280
     0
102
RTVSPost2010PropOp35
 70
     1
102
RTVSPost2010Prop36
280
     0
102
RTVSPost2010PropOp36
 70
     1
102
RTVSPost2010Prop37
 90
       50
102
RTVSPost2010PropOp37
 70
     1
102
RTVSPost2010Prop38
140
0.0
102
RTVSPost2010PropOp38
 70
     1
102
RTVSPost2010Prop39
140
1.0
102
RTVSPost2010PropOp39
 70
     1
102
RTVSPost2010Prop40
 90
        0
102
RTVSPost2010PropOp40
 70
     1
102
RTVSPost2010Prop41ColorIndex
 90
       18
102
RTVSPost2010Prop41ColorRGB
 90
        0
102
RTVSPost2010PropOp41
 70
     1
102
RTVSPost2010Prop42
 90
       50
102
RTVSPost2010PropOp42
 70
     1
102
RTVSPost2010Prop43
 90
        3
102
RTVSPost2010PropOp43
 70
     1
102
RTVSPost2010Prop44ColorIndex
 90
        5
102
RTVSPost2010Prop44ColorRGB
 90
      255
102
RTVSPost2010PropOp44
 70
     1
102
RTVSPost2010Prop45
280
     0
102
RTVSPost2010PropOp45
 70
     1
102
RTVSPost2010Prop46
 90
       50
102
RTVSPost2010PropOp46
 70
     1
102
RTVSPost2010Prop47
 90
       50
102
RTVSPost2010PropOp47
 70
     1
102
RTVSPost2010Prop48
 90
       50
102
RTVSPost2010PropOp48
 70
     1
102
RTVSPost2010Prop49
280
     0
102
RTVSPost2010PropOp49
 70
     1
102
RTVSPost2010Prop50
 90
       50
102
RTVSPost2010PropOp50
 70
     1
102
RTVSPost2010Prop51ColorIndex
 90
      256
102
RTVSPost2010Prop51ColorRGB
 90
-16777216
102
RTVSPost2010PropOp51
 70
     0
102
RTVSPost2010Prop52
140
1.0
102
RTVSPost2010PropOp52
 70
     0
102
RTVSPost2010Prop53
 90
        2
102
RTVSPost2010PropOp53
 70
     1
102
RTVSPost2010Prop54
  1
strokes_ogs.tif
102
RTVSPost2010PropOp54
 70
     1
102
RTVSPost2010Prop55
280
     0
102
RTVSPost2010PropOp55
 70
     1
102
RTVSPost2010Prop56
140
1.0
102
RTVSPost2010PropOp56
 70
     1
102
RTVSPost2010Prop57
140
1.0
102
RTVSPost2010PropOp57
 70
     1
  0
XRECORD
  5
2B88
102
{ACAD_REACTORS
330
2B87
102
}
330
2B87
100
AcDbXrecord
280
     1
102
RTVSPost2010Prop28
280
     0
102
RTVSPost2010PropOp28
 70
     1
102
RTVSPost2010Prop29
280
     1
102
RTVSPost2010PropOp29
 70
     1
102
RTVSPost2010Prop30
280
     1
102
RTVSPost2010PropOp30
 70
     1
102
RTVSPost2010Prop31
280
     0
102
RTVSPost2010PropOp31
 70
     1
102
RTVSPost2010Prop32
280
     0
102
RTVSPost2010PropOp32
 70
     1
102
RTVSPost2010Prop33
280
     0
102
RTVSPost2010PropOp33
 70
     1
102
RTVSPost2010Prop34
280
     0
102
RTVSPost2010PropOp34
 70
     1
102
RTVSPost2010Prop35
280
     0
102
RTVSPost2010PropOp35
 70
     1
102
RTVSPost2010Prop36
280
     0
102
RTVSPost2010PropOp36
 70
     1
102
RTVSPost2010Prop37
 90
       50
102
RTVSPost2010PropOp37
 70
     1
102
RTVSPost2010Prop38
140
0.0
102
RTVSPost2010PropOp38
 70
     1
102
RTVSPost2010Prop39
140
1.0
102
RTVSPost2010PropOp39
 70
     1
102
RTVSPost2010Prop40
 90
        0
102
RTVSPost2010PropOp40
 70
     1
102
RTVSPost2010Prop41ColorIndex
 90
       18
102
RTVSPost2010Prop41ColorRGB
 90
        0
102
RTVSPost2010PropOp41
 70
     1
102
RTVSPost2010Prop42
 90
       50
102
RTVSPost2010PropOp42
 70
     1
102
RTVSPost2010Prop43
 90
        3
102
RTVSPost2010PropOp43
 70
     1
102
RTVSPost2010Prop44ColorIndex
 90
        5
102
RTVSPost2010Prop44ColorRGB
 90
      255
102
RTVSPost2010PropOp44
 70
     1
102
RTVSPost2010Prop45
280
     0
102
RTVSPost2010PropOp45
 70
     1
102
RTVSPost2010Prop46
 90
       50
102
RTVSPost2010PropOp46
 70
     1
102
RTVSPost2010Prop47
 90
       50
102
RTVSPost2010PropOp47
 70
     1
102
RTVSPost2010Prop48
 90
       50
102
RTVSPost2010PropOp48
 70
     1
102
RTVSPost2010Prop49
280
     0
102
RTVSPost2010PropOp49
 70
     1
102
RTVSPost2010Prop50
 90
       50
102
RTVSPost2010PropOp50
 70
     1
102
RTVSPost2010Prop51ColorIndex
 90
      256
102
RTVSPost2010Prop51ColorRGB
 90
-16777216
102
RTVSPost2010PropOp51
 70
     0
102
RTVSPost2010Prop52
140
1.0
102
RTVSPost2010PropOp52
 70
     0
102
RTVSPost2010Prop53
 90
        2
102
RTVSPost2010PropOp53
 70
     1
102
RTVSPost2010Prop54
  1
strokes_ogs.tif
102
RTVSPost2010PropOp54
 70
     1
102
RTVSPost2010Prop55
280
     0
102
RTVSPost2010PropOp55
 70
     1
102
RTVSPost2010Prop56
140
1.0
102
RTVSPost2010PropOp56
 70
     1
102
RTVSPost2010Prop57
140
1.0
102
RTVSPost2010PropOp57
 70
     1
  0
XRECORD
  5
2B8A
102
{ACAD_REACTORS
330
2B89
102
}
330
2B89
100
AcDbXrecord
280
     1
102
RTVSPost2010Prop28
280
     0
102
RTVSPost2010PropOp28
 70
     1
102
RTVSPost2010Prop29
280
     1
102
RTVSPost2010PropOp29
 70
     1
102
RTVSPost2010Prop30
280
     1
102
RTVSPost2010PropOp30
 70
     1
102
RTVSPost2010Prop31
280
     0
102
RTVSPost2010PropOp31
 70
     1
102
RTVSPost2010Prop32
280
     0
102
RTVSPost2010PropOp32
 70
     1
102
RTVSPost2010Prop33
280
     0
102
RTVSPost2010PropOp33
 70
     1
102
RTVSPost2010Prop34
280
     0
102
RTVSPost2010PropOp34
 70
     1
102
RTVSPost2010Prop35
280
     0
102
RTVSPost2010PropOp35
 70
     1
102
RTVSPost2010Prop36
280
     0
102
RTVSPost2010PropOp36
 70
     1
102
RTVSPost2010Prop37
 90
       50
102
RTVSPost2010PropOp37
 70
     1
102
RTVSPost2010Prop38
140
0.0
102
RTVSPost2010PropOp38
 70
     1
102
RTVSPost2010Prop39
140
1.0
102
RTVSPost2010PropOp39
 70
     1
102
RTVSPost2010Prop40
 90
        0
102
RTVSPost2010PropOp40
 70
     1
102
RTVSPost2010Prop41ColorIndex
 90
       18
102
RTVSPost2010Prop41ColorRGB
 90
        0
102
RTVSPost2010PropOp41
 70
     1
102
RTVSPost2010Prop42
 90
       50
102
RTVSPost2010PropOp42
 70
     1
102
RTVSPost2010Prop43
 90
        3
102
RTVSPost2010PropOp43
 70
     1
102
RTVSPost2010Prop44ColorIndex
 90
        5
102
RTVSPost2010Prop44ColorRGB
 90
      255
102
RTVSPost2010PropOp44
 70
     1
102
RTVSPost2010Prop45
280
     0
102
RTVSPost2010PropOp45
 70
     1
102
RTVSPost2010Prop46
 90
       50
102
RTVSPost2010PropOp46
 70
     1
102
RTVSPost2010Prop47
 90
       50
102
RTVSPost2010PropOp47
 70
     1
102
RTVSPost2010Prop48
 90
       50
102
RTVSPost2010PropOp48
 70
     1
102
RTVSPost2010Prop49
280
     0
102
RTVSPost2010PropOp49
 70
     1
102
RTVSPost2010Prop50
 90
       50
102
RTVSPost2010PropOp50
 70
     1
102
RTVSPost2010Prop51ColorIndex
 90
      256
102
RTVSPost2010Prop51ColorRGB
 90
-16777216
102
RTVSPost2010PropOp51
 70
     0
102
RTVSPost2010Prop52
140
1.0
102
RTVSPost2010PropOp52
 70
     0
102
RTVSPost2010Prop53
 90
        2
102
RTVSPost2010PropOp53
 70
     1
102
RTVSPost2010Prop54
  1
strokes_ogs.tif
102
RTVSPost2010PropOp54
 70
     1
102
RTVSPost2010Prop55
280
     0
102
RTVSPost2010PropOp55
 70
     1
102
RTVSPost2010Prop56
140
1.0
102
RTVSPost2010PropOp56
 70
     1
102
RTVSPost2010Prop57
140
1.0
102
RTVSPost2010PropOp57
 70
     1
  0
XRECORD
  5
2B80
102
{ACAD_REACTORS
330
2B7F
102
}
330
2B7F
100
AcDbXrecord
280
     1
102
RTVSPost2010Prop28
280
     0
102
RTVSPost2010PropOp28
 70
     1
102
RTVSPost2010Prop29
280
     1
102
RTVSPost2010PropOp29
 70
     1
102
RTVSPost2010Prop30
280
     1
102
RTVSPost2010PropOp30
 70
     1
102
RTVSPost2010Prop31
280
     0
102
RTVSPost2010PropOp31
 70
     1
102
RTVSPost2010Prop32
280
     0
102
RTVSPost2010PropOp32
 70
     1
102
RTVSPost2010Prop33
280
     0
102
RTVSPost2010PropOp33
 70
     1
102
RTVSPost2010Prop34
280
     0
102
RTVSPost2010PropOp34
 70
     1
102
RTVSPost2010Prop35
280
     0
102
RTVSPost2010PropOp35
 70
     1
102
RTVSPost2010Prop36
280
     0
102
RTVSPost2010PropOp36
 70
     1
102
RTVSPost2010Prop37
 90
       50
102
RTVSPost2010PropOp37
 70
     1
102
RTVSPost2010Prop38
140
0.0
102
RTVSPost2010PropOp38
 70
     1
102
RTVSPost2010Prop39
140
1.0
102
RTVSPost2010PropOp39
 70
     1
102
RTVSPost2010Prop40
 90
        0
102
RTVSPost2010PropOp40
 70
     1
102
RTVSPost2010Prop41ColorIndex
 90
       18
102
RTVSPost2010Prop41ColorRGB
 90
        0
102
RTVSPost2010PropOp41
 70
     1
102
RTVSPost2010Prop42
 90
       50
102
RTVSPost2010PropOp42
 70
     1
102
RTVSPost2010Prop43
 90
        3
102
RTVSPost2010PropOp43
 70
     1
102
RTVSPost2010Prop44ColorIndex
 90
        5
102
RTVSPost2010Prop44ColorRGB
 90
      255
102
RTVSPost2010PropOp44
 70
     1
102
RTVSPost2010Prop45
280
     0
102
RTVSPost2010PropOp45
 70
     1
102
RTVSPost2010Prop46
 90
       50
102
RTVSPost2010PropOp46
 70
     1
102
RTVSPost2010Prop47
 90
       50
102
RTVSPost2010PropOp47
 70
     1
102
RTVSPost2010Prop48
 90
       50
102
RTVSPost2010PropOp48
 70
     1
102
RTVSPost2010Prop49
280
     0
102
RTVSPost2010PropOp49
 70
     1
102
RTVSPost2010Prop50
 90
       50
102
RTVSPost2010PropOp50
 70
     1
102
RTVSPost2010Prop51ColorIndex
 90
      256
102
RTVSPost2010Prop51ColorRGB
 90
-16777216
102
RTVSPost2010PropOp51
 70
     0
102
RTVSPost2010Prop52
140
1.0
102
RTVSPost2010PropOp52
 70
     0
102
RTVSPost2010Prop53
 90
        2
102
RTVSPost2010PropOp53
 70
     1
102
RTVSPost2010Prop54
  1
strokes_ogs.tif
102
RTVSPost2010PropOp54
 70
     1
102
RTVSPost2010Prop55
280
     0
102
RTVSPost2010PropOp55
 70
     1
102
RTVSPost2010Prop56
140
1.0
102
RTVSPost2010PropOp56
 70
     1
102
RTVSPost2010Prop57
140
1.0
102
RTVSPost2010PropOp57
 70
     1
  0
XRECORD
  5
2B74
102
{ACAD_REACTORS
330
2B73
102
}
330
2B73
100
AcDbXrecord
280
     1
102
RTVSPost2010Prop28
280
     0
102
RTVSPost2010PropOp28
 70
     1
102
RTVSPost2010Prop29
280
     1
102
RTVSPost2010PropOp29
 70
     1
102
RTVSPost2010Prop30
280
     1
102
RTVSPost2010PropOp30
 70
     1
102
RTVSPost2010Prop31
280
     0
102
RTVSPost2010PropOp31
 70
     1
102
RTVSPost2010Prop32
280
     0
102
RTVSPost2010PropOp32
 70
     1
102
RTVSPost2010Prop33
280
     0
102
RTVSPost2010PropOp33
 70
     1
102
RTVSPost2010Prop34
280
     0
102
RTVSPost2010PropOp34
 70
     1
102
RTVSPost2010Prop35
280
     0
102
RTVSPost2010PropOp35
 70
     1
102
RTVSPost2010Prop36
280
     0
102
RTVSPost2010PropOp36
 70
     1
102
RTVSPost2010Prop37
 90
       50
102
RTVSPost2010PropOp37
 70
     1
102
RTVSPost2010Prop38
140
0.0
102
RTVSPost2010PropOp38
 70
     1
102
RTVSPost2010Prop39
140
1.0
102
RTVSPost2010PropOp39
 70
     1
102
RTVSPost2010Prop40
 90
        0
102
RTVSPost2010PropOp40
 70
     1
102
RTVSPost2010Prop41ColorIndex
 90
       18
102
RTVSPost2010Prop41ColorRGB
 90
        0
102
RTVSPost2010PropOp41
 70
     1
102
RTVSPost2010Prop42
 90
       50
102
RTVSPost2010PropOp42
 70
     1
102
RTVSPost2010Prop43
 90
        3
102
RTVSPost2010PropOp43
 70
     1
102
RTVSPost2010Prop44ColorIndex
 90
        5
102
RTVSPost2010Prop44ColorRGB
 90
      255
102
RTVSPost2010PropOp44
 70
     1
102
RTVSPost2010Prop45
280
     0
102
RTVSPost2010PropOp45
 70
     1
102
RTVSPost2010Prop46
 90
       50
102
RTVSPost2010PropOp46
 70
     1
102
RTVSPost2010Prop47
 90
       50
102
RTVSPost2010PropOp47
 70
     1
102
RTVSPost2010Prop48
 90
       50
102
RTVSPost2010PropOp48
 70
     1
102
RTVSPost2010Prop49
280
     0
102
RTVSPost2010PropOp49
 70
     1
102
RTVSPost2010Prop50
 90
       50
102
RTVSPost2010PropOp50
 70
     1
102
RTVSPost2010Prop51ColorIndex
 90
      256
102
RTVSPost2010Prop51ColorRGB
 90
-16777216
102
RTVSPost2010PropOp51
 70
     0
102
RTVSPost2010Prop52
140
1.0
102
RTVSPost2010PropOp52
 70
     0
102
RTVSPost2010Prop53
 90
        2
102
RTVSPost2010PropOp53
 70
     1
102
RTVSPost2010Prop54
  1
strokes_ogs.tif
102
RTVSPost2010PropOp54
 70
     1
102
RTVSPost2010Prop55
280
     0
102
RTVSPost2010PropOp55
 70
     1
102
RTVSPost2010Prop56
140
1.0
102
RTVSPost2010PropOp56
 70
     1
102
RTVSPost2010Prop57
140
1.0
102
RTVSPost2010PropOp57
 70
     1
  0
XRECORD
  5
2B8C
102
{ACAD_REACTORS
330
2B8B
102
}
330
2B8B
100
AcDbXrecord
280
     1
102
RTVSPost2010Prop28
280
     0
102
RTVSPost2010PropOp28
 70
     1
102
RTVSPost2010Prop29
280
     1
102
RTVSPost2010PropOp29
 70
     1
102
RTVSPost2010Prop30
280
     1
102
RTVSPost2010PropOp30
 70
     1
102
RTVSPost2010Prop31
280
     0
102
RTVSPost2010PropOp31
 70
     1
102
RTVSPost2010Prop32
280
     0
102
RTVSPost2010PropOp32
 70
     1
102
RTVSPost2010Prop33
280
     0
102
RTVSPost2010PropOp33
 70
     1
102
RTVSPost2010Prop34
280
     0
102
RTVSPost2010PropOp34
 70
     1
102
RTVSPost2010Prop35
280
     0
102
RTVSPost2010PropOp35
 70
     1
102
RTVSPost2010Prop36
280
     0
102
RTVSPost2010PropOp36
 70
     1
102
RTVSPost2010Prop37
 90
       50
102
RTVSPost2010PropOp37
 70
     1
102
RTVSPost2010Prop38
140
0.0
102
RTVSPost2010PropOp38
 70
     1
102
RTVSPost2010Prop39
140
1.0
102
RTVSPost2010PropOp39
 70
     1
102
RTVSPost2010Prop40
 90
        0
102
RTVSPost2010PropOp40
 70
     1
102
RTVSPost2010Prop41ColorIndex
 90
       18
102
RTVSPost2010Prop41ColorRGB
 90
        0
102
RTVSPost2010PropOp41
 70
     1
102
RTVSPost2010Prop42
 90
       50
102
RTVSPost2010PropOp42
 70
     1
102
RTVSPost2010Prop43
 90
        3
102
RTVSPost2010PropOp43
 70
     1
102
RTVSPost2010Prop44ColorIndex
 90
        5
102
RTVSPost2010Prop44ColorRGB
 90
      255
102
RTVSPost2010PropOp44
 70
     1
102
RTVSPost2010Prop45
280
     0
102
RTVSPost2010PropOp45
 70
     1
102
RTVSPost2010Prop46
 90
       50
102
RTVSPost2010PropOp46
 70
     1
102
RTVSPost2010Prop47
 90
       50
102
RTVSPost2010PropOp47
 70
     1
102
RTVSPost2010Prop48
 90
       50
102
RTVSPost2010PropOp48
 70
     1
102
RTVSPost2010Prop49
280
     0
102
RTVSPost2010PropOp49
 70
     1
102
RTVSPost2010Prop50
 90
       50
102
RTVSPost2010PropOp50
 70
     1
102
RTVSPost2010Prop51ColorIndex
 90
      256
102
RTVSPost2010Prop51ColorRGB
 90
-16777216
102
RTVSPost2010PropOp51
 70
     0
102
RTVSPost2010Prop52
140
1.0
102
RTVSPost2010PropOp52
 70
     0
102
RTVSPost2010Prop53
 90
        2
102
RTVSPost2010PropOp53
 70
     1
102
RTVSPost2010Prop54
  1
strokes_ogs.tif
102
RTVSPost2010PropOp54
 70
     1
102
RTVSPost2010Prop55
280
     0
102
RTVSPost2010PropOp55
 70
     1
102
RTVSPost2010Prop56
140
1.0
102
RTVSPost2010PropOp56
 70
     1
102
RTVSPost2010Prop57
140
1.0
102
RTVSPost2010PropOp57
 70
     1
  0
ENDSEC
  0
EOF
